PrimaNota.ru - самый крупный в мире бесплатный архив песенных текстов, аккордов, табулатур и нот


Descend - The Creature Within - бас-таба, видео

Регистрация Запомнить меня
Войти через:  Facebook Google Twitter Vk Yandex Mail.ru

Descend - The Creature Within - бас-таба, видео

Печатать
Просмотров: 89
The Creature Within
By Descend

(Intro 1)
G|-------------------------------------------------------------------------|
D|---9-------9-------9-------9-------9--------8-----8-----8-----8-----8----|
A|-----10------10------10------10------10-------9-----9-----9-----9-----9--|
E|-0-------0-------0-------0-------0------0-0-----0-----0-----0-----0-----0|

G|------------------------------------------------------------------------|
D|---7-----7-----7-----7-----7-------5-----5-----5-----5-----5------------|
A|-----8-----8-----8-----8-----8-------7-----7-----7-----7-----7----------|
E|-0-----0-----0-----0-----0-----0-0-----0-----0-----0-----0-----0--------|

G|-------------------------------------------------------------------------|
D|---9-------9-------9-------9-------9--------8-----8-----8-----8-----8----|
A|-----10------10------10------10------10-------9-----9-----9-----9-----9--|
E|-0-------0-------0-------0-------0------0-0-----0-----0-----0-----0-----0|

G|------------------------------------------------------------------------|
D|---7-----7-----7-----7-----7-------5-----5-----5------------------------|
A|-----8-----8-----8-----8-----8-------7-----7----------------------------|
E|-0-----0-----0-----0-----0-----0-0-----0-----0-----0-0-0-0-0-0-0-0------|


(Intro 2)
G|-------|-------|
D|-------|-------|
A|-------|-------|
E|--0----|--0----|

G|---------------------------------------------------------------|
D|---------------------------------------------------------------|
A|---------------------------------------------------------------|
E|-0-0-0-0--3-3--0-0-0-0--3-3--0-0-0-0-1-0-0-4-0-7-0-0-10-11-12--|

G|---------------------------------------------------------------|
D|---------------------------------------------------------------|
A|---------------------------------------------------------------|
E|-0-0-0-0--3-3--0-0-0-0--3-3--0-0-0-0------------REST-----------|

(Verse 1)
G|---------------------------------------------------------------|
D|---------------------------------------------------------------|
A|---------------------------------------------------------------|
E|-0-0-0-0--3-3--0-0-0-0--3-3--0-0-0-0-1-0-0-4-0-7-0-0-10-11-12--|

G|---------------------------------------------------------------|
D|---------------------------------------------------------------|
A|---------------------------------------------------------------|
E|-0-0-0-0--3-3--0-0-0-0--3-3--0-0-0-0-1-0-0-4-0-7-0-0-10-11-12--|

G|---------------------------------------------------------------|
D|---------------------------------------------------------------|
A|---------------------------------------------------------------|
E|-0-0-0-0--3-3--0-0-0-0--3-3--0-0-0-0-1-0-0-4-0-7-0-0-10-11-12--|

G|---------------------------------------------------------------|
D|---------------------------------------------------------------|
A|---------------------------------------------------------------|
E|-0-0-0-0--3-3--0-0-0-0--3-3--0-0-0-0------------REST-----------|

(Chorus)
G|-----------------------------------------------------------------------|
D|-----------------------------------------------------------------------|
A|---------10------------------10------------10--------------------------|
E|--12-12------10-12-12-12-12------10-12-12------10-12-0-0-0-0-0-0-0-----|

G|-----------------------------------------------------------------------|
D|-----------------------------------------------------------------------|
A|---------10------------------10------------10--------------------------|
E|--12-12------10-12-12-12-12------10-12-12------10-12-0-0-0-0-0-0-0-----|

(After Chorus)
G|--------------------------------------|
D|--------------------------------------|
A|---------------------3------2---------|
E|--1-0-0-0-0-0-0-0-0----0-0----0-3-----|

G|--------------------------------------|
D|--------------------------------------|
A|---------------------3------2---------|
E|--1-0-0-0-0-0-0-0-0----0-0----0-3-----|

G|--------------------------------------|
D|--------------------------------------|
A|---------------------3------2---------|
E|--1-0-0-0-0-0-0-0-0----0-0----0-3-----|

G|--------------------------------------|
D|--------------------------------------|
A|--------------------------------------|
E|--1-0-0-0-1-0-0-4-0-7-0-0-10-11-12----|

(Verse 2)
G|---------------------------------------------------------------|
D|---------------------------------------------------------------|
A|---------------------------------------------------------------|
E|-0-0-0-0--3-3--0-0-0-0--3-3--0-0-0-0-1-0-0-4-0-7-0-0-10-11-12--|

G|---------------------------------------------------------------|
D|---------------------------------------------------------------|
A|---------------------------------------------------------------|
E|-0-0-0-0--3-3--0-0-0-0--3-3--0-0-0-0-1-0-0-4-0-7-0-0-10-11-12--|

G|---------------------------------------------------------------|
D|---------------------------------------------------------------|
A|---------------------------------------------------------------|
E|-0-0-0-0--3-3--0-0-0-0--3-3--0-0-0-0-1-0-0-4-0-7-0-0-10-11-12--|

G|---------------------------------------------------------------|
D|---------------------------------------------------------------|
A|---------------------------------------------------------------|
E|-0-0-0-0--3-3--0-0-0-0--3-3--0-0-0-0------------REST-----------|

(Chorus)
G|-----------------------------------------------------------------------|
D|-----------------------------------------------------------------------|
A|---------10------------------10------------10--------------------------|
E|--12-12------10-12-12-12-12------10-12-12------10-12-0-0-0-0-0-0-0-----|

G|-----------------------------------------------------------------------|
D|-----------------------------------------------------------------------|
A|---------10------------------10------------10--------------------------|
E|--12-12------10-12-12-12-12------10-12-12------10-12-0-0-0-0-0-0-0-----|

(After Chorus)
G|--------------------------------------|
D|--------------------------------------|
A|---------------------3------2---------|
E|--1-0-0-0-0-0-0-0-0----0-0----0-3-----|

G|--------------------------------------|
D|--------------------------------------|
A|---------------------3------2---------|
E|--1-0-0-0-0-0-0-0-0----0-0----0-3-----|

G|--------------------------------------|
D|--------------------------------------|
A|---------------------3------2---------|
E|--1-0-0-0-0-0-0-0-0----0-0----0-3-----|

G|---------------------------------------------------|
D|---------------------------------------------------|
A|---------------------------------------------------|
E|--1-0-0-0-1-0-0-4-0-7-0-0-10-11-12---0~------------|

(Interlude)
G|---------------------------------------|
D|---------------------------------------|
A|---------------------------------------|
E|--12-12-12-14-12-10-10-10-10-10h12p10--|

(Bass Solo)
G|--------------------------------------------------------------------|
D|--10-10-10-10-10-10-9-10-12-12-12-12-14-14-14-14-16-16-16-16-16-16--|
A|--------------------------------------------------------------------|
E|--------------------------------------------------------------------|

G|------------------------------|
D|--17-17-17-17-19-19-19-19-----|
A|------------------------------|
E|------------------------------|

G|-------------------------------------------------------------------------|
D|-------------------------------------------------------------------------|
A|-------------------------------------------------------------------------|
E|-12-12-12-12-12-12-12-12-12-12-12-12-12-12-12-12-10-10-10-10-10-10-10-10-|

G|-------------------------------------------------------------------------|
D|-------------------------------------------------------------------------|
A|-------------------------------------------------------------------------|
E|-10-10-10-10-10-10-10-10-8-8-8-8-8-8-8-8-8-8-8-8-8-8-8-8-7-7-7-7-7-7-7-7-|

G|------------------|
D|------------------|
A|------------------|
E|-7-7-7-7-7-7-7-7--| x3

G|---------------------------------------------------------------------------|
D|---------------------------------------------------------------------------|
A|---------------------------------------------------------------------------|
E|--12-12-12-12-12--10-10-10-10-10--8-8-8-8-8--7-7-7-7-7--5-5-5-5-5----------|

G|-----------------------------------------------|
D|-----------------------------------------------|
A|-----------------------------------------------|
E|--3-3-3-3-3--1-1-1-1-1--1-1-1-1-1-----0~---0~--|

(Drums Only)

G|--9-9-9-9-9-9-9-9--------------------------------------------------------|
D|-------------------------------------------------------------------------|
A|------------------------10----------10----------10-----------------------|
E|------------------12-12----10-12-12----10-12-12----10-12-0-0-0-0-0-0-----|

G|---------------------------------------------------------------------------|
D|---------------------------------------------------------------------------|
A|--------10----------10----------10-----------------------------------------|
E|--12-12----10-12-12----10-12-12----10-12-0-0-0-0-0-0-0---1-0---------------|
Добавлено: 29.05.2012
Другие материалы по этой песне:
  • Аккорды и текст

Страница создана 29.05.2012
http://primanota.ru/descend/the-creature-within-chords.htm
Привет, Гость.
Предлагаем пройти революционный курс по гитаре.
Подарок от PrimaNota.Ru, забирай!