PrimaNota.ru - самый крупный в мире бесплатный архив песенных текстов, аккордов, табулатур и нот


Desaster - A Touch Of Medieval Darkness - текст песни, таба, бас-таба, видео

Регистрация Запомнить меня
Войти через:  Facebook Google Twitter Vk Yandex Mail.ru

Desaster - A Touch Of Medieval Darkness - текст песни, таба, бас-таба, видео

Печатать
Просмотров: 124
As recorded by Desaster
(From the 1996 Album A TOUCH OF MEDIEVAL DARKNESS)

Transcribed by Historiae
	

Words by Occulto Music by Desaster

D5
x 5 7 7 x x
	
C5
x 3 5 5 x x
	
A5
5 7 7 x x x
	
G5
3 5 5 x x x

E5
x 7 9 9 x x
	
D
x 5 x 7 x x
	
E
x 7 x 9 x x
	
F
x 8 x 10 x x

FVII
x 8 7 x x x
	
C
x 3 2 x x x
	
G
x 10 x 12 x x
	
Gm
x 10 8 x x x

Gtr I (D G C F A D) - 'Occulto'
Gtr II (D G C F A D) - 'Occulto 2'
Gtr III (D G C F A D) - 'Occulto 3'

   Intro
    Q=150
    N.C.
   4/4
    Gtr I
     Q   E E  Q   E E   Q  E E E E Q     Q   E E  Q   E E   q  q  H
||--------------------|---------------|-------------------|-------------||
||o-10--10-8-10--10-8-|-6--6-5---5-6--|-10--10-8-10--10-8-|------------o||
||--------------------|--------7------|-------------------|-5--5--7-----||
||--------------------|---------------|-------------------|-------------||
||o-------------------|---------------|-------------------|------------o||
||--------------------|---------------|-------------------|-------------||
|
|   Gtr II
|    W                  W                W                  q  q  H
||--------------------|---------------|-------------------|-------------||
||o-------------------|---------------|-------------------|------------o||
||--------------------|---------------|-------------------|-------------||
||---0----------------|-0-------------|--0----------------|-0--0--0-----||
||o-------------------|---------------|-------------------|------------o||
||--------------------|---------------|-------------------|-------------||


    D5                               C5
     Q   E E  Q   E E    Q   E E E E Q
||--------------------|-----------------|
||o-10--10-8-10--10-8-|--6---6-5---5-6--|
||--------------------|----------7------|
||--------------------|-----------------|
||o-------------------|-----------------|
||--------------------|-----------------|
|
|    W                   W
||--------------------|-----------------|
||o-------------------|-----------------|
||--------------------|-----------------|
||---0----------------|--0--------------|
||o-------------------|-----------------|
||--------------------|-----------------|
|
|   Gtr III
|    W                  +H.          Q
||--------------------|-----------------|
||o-------------------|-----------------|
||---7----------------|-(7)----------5--|
||---7----------------|-(7)----------5--|
||o--5----------------|-(5)----------3--|
||--------------------|-----------------|


  D5                E   F  G  F  E D
   Q    E E  Q   E  E    q     q   H
|---------------------|------------------||
|-10---10-8-10--10--8-|-----------------o||
|---------------------|--5-----5---7-----||
|---------------------|------------------||
|---------------------|-----------------o||
|---------------------|------------------||
|
|  W                     q     q   H
|---------------------|------------------||
|---------------------|-----------------o||
|---------------------|------------------||
|--0------------------|--0-----0---0-----||
|---------------------|-----------------o||
|---------------------|------------------||
|
|  H.           +E  E    E  E  E E H
|---------------------|------------------||
|---------------------|-----------------o||
|--7------------(7)-9-|-10-12-10-9-7-----||
|--7------------(7)---|------------------||
|--5------------(5)-7-|--8-10--8-7-5----o||
|---------------------|------------------||


    A5                            G5    A5              G5    A5
    Q  E E Q  E E    Q    E E E E  Q    Q  E E Q  E E   q  q  H
||----------------|-------------------|---------------|-------------||
||o---------------|-------------------|---------------|------------o||
||--9--9-7-9--9-7-|-------------------|-9--9-7-9--9-7-|-------------||
||----------------|-10---10-9-7-9-10--|---------------|-5--5--7-----||
||o---------------|-------------------|---------------|------------o||
||----------------|-------------------|---------------|-------------||
|
|   W                W                  W               q  q  H
||----------------|-------------------|---------------|-------------||
||o---------------|-------------------|---------------|------------o||
||----------------|-------------------|---------------|-------------||
||----------------|-------------------|---------------|-------------||
||o---------------|-------------------|---------------|------------o||
||--5-------------|--5----------------|-5-------------|-3--3--5-----||
|
|   W               +H.            Q    W               q  q  H
||----------------|-------------------|---------------|-------------||
||o---------------|-------------------|---------------|------------o||
||----------------|-------------------|---------------|-------------||
||--7-------------|-(7)------------5--|-7-------------|-5--5--7-----||
||o-7-------------|-(7)------------5--|-7-------------|-5--5--7----o||
||--5-------------|-(5)------------3--|-5-------------|-3--3--5-----||


    D5                               C5
     Q   E E  Q   E E    Q   E E E E Q
||--------------------|-----------------|
||o-10--10-8-10--10-8-|--6---6-5---5-6--|
||--------------------|----------7------|
||--------------------|-----------------|
||o-------------------|-----------------|
||--------------------|-----------------|
|
|    W                   W
||--------------------|-----------------|
||o-------------------|-----------------|
||--------------------|-----------------|
||---0----------------|--0--------------|
||o-------------------|-----------------|
||--------------------|-----------------|
|
|   Gtr III
|    W                  +H.          Q
||--------------------|-----------------|
||o-------------------|-----------------|
||---7----------------|-(7)----------5--|
||---7----------------|-(7)----------5--|
||o--5----------------|-(5)----------3--|
||--------------------|-----------------|


  D5                N.C.
   Q    E E  Q   E  E    q     q   H
|---------------------|------------------||
|-10---10-8-10--10--8-|-----------------o||
|---------------------|--5-----5---7-----||
|---------------------|------------------||
|---------------------|-----------------o||
|---------------------|------------------||
|
|  W                     q     q   H
|---------------------|------------------||
|---------------------|-----------------o||
|---------------------|------------------||
|--0------------------|--0-----0---0-----||
|---------------------|-----------------o||
|---------------------|------------------||
|
|  H.           +E  E    E  E  E E H
|---------------------|------------------||
|---------------------|-----------------o||
|--7------------(7)-9-|-10-12-10-9-7-----||
|--7------------(7)---|------------------||
|--5------------(5)-7-|--8-10--8-7-5----o||
|---------------------|------------------||


    C5    D5                  C5    D5
    Gtrs I, III
    q  q  H      +W           q  q  H      +W
||-------------|------------|------------|---------||
||o------------|------------|------------|--------o||
||--5--5--7----|-(7)--------|-5--5--7----|-(7)-----||
||--5--5--7----|-(7)--------|-5--5--7----|-(7)-----||
||o-3--3--5----|-(5)--------|-3--3--5----|-(5)----o||
||-------------|------------|------------|---------||


    C5    D5                         C5    D5
    Gtr I
    q  q  H         +W               q  q  H         +W               4x
||----------------|----------------|---------------|------------------||
||o---------------|----------------|---------------|-----------------o||
||--5--5--7-------|-(7)------------|-5--5--7-------|-(7)--------------||
||--5--5--7-------|-(7)------------|-5--5--7-------|-(7)--------------||
||o-3--3--5-------|-(5)------------|-3--3--5-------|-(5)-------------o||
||----------------|----------------|---------------|------------------||
|
|   Gtr III
|                             ~                                 ~
|   q  q  Q   E E    E  E E E H      q  q  Q   E E    E  E  E E H     4x
||----------------|----------------|---------------|------------------||
||o---------------|----------------|---------------|-----------------o||
||--5--5--7--/5-7-|--9--7-5-7-7----|-5--5--7--/7-9-|-10S12-10-9-9-----||
||--5--5--7-------|----------------|-5--5--7-------|------------------||
||o-3--3--5-------|----------------|-3--3--5-------|-----------------o||
||----------------|----------------|---------------|------------------||


          D5  E5D5      E5D5        E5D5  C5
 2/4     4/4
          |3| |-3-| |3| |-3-|   |3| |-3-| |-3-|
  q  q    Q E E E E Q E E E E   Q E E E E Q Q Q
|-------|---------------------|-----------------|
|-------|---------------------|-----------------|
|-5--5--|-7-7S9-7-7-7-7S9-7-7-|-7-7S9-7-7-5-5-5-|
|-5--5--|-7-7S9-7-7-7-7S9-7-7-|-7-7S9-7-7-5-5-5-|
|-3--3--|-5-5S7-5-5-5-5S7-5-5-|-5-5S7-5-5-3-3-3-|
|-------|---------------------|-----------------|
|
| q  q    W                     W
|-------|---------------------|-----------------|
|-------|---------------------|-----------------|
|-5--5--|---------------------|-----------------|
|-5--5--|---------------------|-----------------|
|-3--3--|---------------------|-----------------|
|-------|---------------------|-----------------|


  D5  E5D5      E5D5        E5D5  C5
  |3| |-3-| |3| |-3-|   |3| |-3-| |-3-|
  Q E E E E Q E E E E   Q E E E E Q Q Q
|---------------------|-----------------|
|---------------------|-----------------|
|-7-7S9-7-7-7-7S9-7-7-|-7-7S9-7-7-5-5-5-|
|-7-7S9-7-7-7-7S9-7-7-|-7-7S9-7-7-5-5-5-|
|-5-5S7-5-5-5-5S7-5-5-|-5-5S7-5-5-3-3-3-|
|---------------------|-----------------|
|
|                                 |-3-|
| W                     H         Q Q Q
|---------------------|-----------------|
|---------------------|-----------------|
|---------------------|---------------5-|
|---------------------|---------------5-|
|---------------------|---------------3-|
|---------------------|-----------------|


  D5  E5D5      E5D5          E5D5  C5
  |3| |-3-| |3| |-3-|    |3-| |-3-| |-3-|
  Q E E E E Q E E E E    Q  E E E E Q Q Q
|---------------------|-------------------|
|---------------------|-------------------|
|-7-7S9-7-7-7-7S9-7-7-|--7--7S9-7-7-5-5-5-|
|-7-7S9-7-7-7-7S9-7-7-|--7--7S9-7-7-5-5-5-|
|-5-5S7-5-5-5-5S7-5-5-|--5--5S7-5-5-3-3-3-|
|---------------------|-------------------|
|
| W                     +W
|---------------------|-------------------|
|---------------------|-------------------|
|-7-------------------|-(7)---------------|
|-7-------------------|-(7)---------------|
|-5-------------------|-(5)---------------|
|---------------------|-------------------|


  D5    E5D5      E5D5          E5D5  C5
   |3-| |-3-| |3| |-3-|    |3-| |-3-| |-3-|
   Q  E E E E Q E E E E    Q  E E E E Q Q Q
|-----------------------|-------------------|
|-----------------------|-------------------|
|--7--7S9-7-7-7-7S9-7-7-|--7--7S9-7-7-5-5-5-|
|--7--7S9-7-7-7-7S9-7-7-|--7--7S9-7-7-5-5-5-|
|--5--5S7-5-5-5-5S7-5-5-|--5--5S7-5-5-3-3-3-|
|-----------------------|-------------------|
|
| +W                      +W
|-----------------------|-------------------|
|-----------------------|-------------------|
|-(7)-------------------|-(7)---------------|
|-(7)-------------------|-(7)---------------|
|-(5)-------------------|-(5)---------------|
|-----------------------|-------------------|


   Main Riff
    D5  E5D5      E5D5        E5D5  C5
    Gtrs I, III
    |3| |-3-| |3| |-3-|   |3| |-3-| |-3-|
    Q E E E E Q E E E E   Q E E E E Q Q Q
||----------------------|-----------------|
||o---------------------|-----------------|
||--7-7S9-7-7-7-7S9-7-7-|-7-7S9-7-7-5-5-5-|
||--7-7S9-7-7-7-7S9-7-7-|-7-7S9-7-7-5-5-5-|
||o-5-5S7-5-5-5-5S7-5-5-|-5-5S7-5-5-3-3-3-|
||----------------------|-----------------|


  D5  E5D5      E5D5        E5D5  E5
  |3| |-3-| |3| |-3-|   |3| |-3-| |-3-|
  Q E E E E Q E E E E   Q E E E E Q Q Q
|---------------------|-------------------||
|---------------------|------------------o||
|-7-7S9-7-7-7-7S9-7-7-|-7-7S9-7-7-5-5-5---||
|-7-7S9-7-7-7-7S9-7-7-|-7-7S9-7-7-5-5-5---||
|-5-5S7-5-5-5-5S7-5-5-|-5-5S7-5-5-3-3-3--o||
|---------------------|-------------------||


   Variation A
    D         E           F              E
    |3| |-3-| |3| |-3-|    |3-|  |--3--| |3| |-3-|
    Q E E E E Q E E E E    Q  E  E  E  E Q E E E E
||----------------------|--------------------------|
||o---------------------|--------------------------|
||--7-7-7-7-7S9-9-9-9-9S|=10-10-10-10-10-9-9-9-9-9-|
||----------------------|--------------------------|
||o-5-5-5-5-5S7-7-7-7-7S|==8--8--8--8--8-7-7-7-7-7-|
||----------------------|--------------------------|


  FVII                            C
  |3| |-3-| |3| |-3-|   |3| |-3-| |-3-|
  Q E E E E Q E E E E   Q E E E E Q Q Q
|---------------------|-------------------|
|---------------------|-------------------|
|---------------------|-------------------|
|-7-7-7-7-7-7-7-7-7-7-|-7-7-7-7-7-2-2-2---|
|-8-8-8-8-8-8-8-8-8-8-|-8-8-8-8-8-3-3-3---|
|---------------------|-------------------|


  D         E           G              F
  |3| |-3-| |3| |-3-|    |3-|  |--3--|  |3-|  |--3--|
  Q E E E E Q E E E E    Q  E  E  E  E  Q  E  E  E  E
|---------------------|-------------------------------|
|---------------------|-------------------------------|
|-7-7-7-7-7S9-9-9-9-9S|=12-12-12-12-12-10-10-10-10-10-|
|---------------------|-------------------------------|
|-5-5-5-5-5S7-7-7-7-7S|=10-10-10-10-10--8--8--8--8--8-|
|---------------------|-------------------------------|


  FVII                            C
  |3| |-3-| |3| |-3-|   |3| |-3-| |-3-|
  Q E E E E Q E E E E   Q E E E E Q Q Q
|---------------------|------------------||
|---------------------|-----------------o||
|---------------------|------------------||
|-7-7-7-7-7-7-7-7-7-7-|-7-7-7-7-7-2-2-2--||
|-8-8-8-8-8-8-8-8-8-8-|-8-8-8-8-8-3-3-3-o||
|---------------------|------------------||


   Main Riff
    D5  E5D5      E5D5        E5D5  C5
    Gtrs I, III
    |3| |-3-| |3| |-3-|   |3| |-3-| |-3-|
    Q E E E E Q E E E E   Q E E E E Q Q Q
||----------------------|-----------------|
||o---------------------|-----------------|
||--7-7S9-7-7-7-7S9-7-7-|-7-7S9-7-7-5-5-5-|
||--7-7S9-7-7-7-7S9-7-7-|-7-7S9-7-7-5-5-5-|
||o-5-5S7-5-5-5-5S7-5-5-|-5-5S7-5-5-3-3-3-|
||----------------------|-----------------|


  D5  E5D5      E5D5        E5D5  E5
  |3| |-3-| |3| |-3-|   |3| |-3-| |-3-|
  Q E E E E Q E E E E   Q E E E E Q Q Q
|---------------------|-------------------||
|---------------------|------------------o||
|-7-7S9-7-7-7-7S9-7-7-|-7-7S9-7-7-5-5-5---||
|-7-7S9-7-7-7-7S9-7-7-|-7-7S9-7-7-5-5-5---||
|-5-5S7-5-5-5-5S7-5-5-|-5-5S7-5-5-3-3-3--o||
|---------------------|-------------------||


   Variation B
    A5
    |3| |-3-| |3| |-3-|   |3| |-3-| |-3-|
    Q E E E E Q E E E E   Q E E E E Q Q Q
||----------------------|-----------------|
||o---------------------|-----------------|
||----------------------|-----------------|
||--7-7-7-7-7-7-7-7-7-7-|-7-7-7-7-7-7-7-7-|
||o-7-7-7-7-7-7-7-7-7-7-|-7-7-7-7-7-7-7-7-|
||--5-5-5-5-5-5-5-5-5-5-|-5-5-5-5-5-5-5-5-|
|
|   Gtr III
|                         TP
|   |3| |-3-| |3| |-3-|
|   Q E E E E Q E E E E   W
||----------------------|-----------------|
||o---------------------|-----------------|
||----------------------|-5---------------|
||--7-7-7-7-7-7-7-7-7-7-|-7---------------|
||o-7-7-7-7-7-7-7-7-7-7-|-----------------|
||--5-5-5-5-5-5-5-5-5-5-|-----------------|


  C5
   |3-|  |--3--|  |3-|  |--3--|    |3-|  |--3--|  |--3--|
   Q  E  E  E  E  Q  E  E  E  E    Q  E  E  E  E  Q  Q  Q   4x
|-------------------------------|---------------------------||
|-------------------------------|--------------------------o||
|-------------------------------|---------------------------||
|-10-10-10-10-10-10-10-10-10-10-|-10-10-10-10-10-10-10-10---||
|-10-10-10-10-10-10-10-10-10-10-|-10-10-10-10-10-10-10-10--o||
|--8--8--8--8--8--8--8--8--8--8-|--8--8--8--8--8--8--8--8---||
|
|                                  TP             TP
|  |3-|  |--3--|  |3-|  |--3--|
|  Q  E  E  E  E  Q  E  E  E  E    H              H         4x
|-------------------------------|---------------------------||
|-------------------------------|--------------------------o||
|-------------------------------|---------------------------||
|-10-10-10-10-10-10-10-10-10-10-|---------------------------||
|-10-10-10-10-10-10-10-10-10-10-|--8--------------7--------o||
|--8--8--8--8--8--8--8--8--8--8-|--8--------------8---------||


   Main Riff
    D5  E5D5      E5D5        E5D5  C5
    Gtrs I, III
    |3| |-3-| |3| |-3-|   |3| |-3-| |-3-|
    Q E E E E Q E E E E   Q E E E E Q Q Q
||----------------------|-----------------|
||o---------------------|-----------------|
||--7-7S9-7-7-7-7S9-7-7-|-7-7S9-7-7-5-5-5-|
||--7-7S9-7-7-7-7S9-7-7-|-7-7S9-7-7-5-5-5-|
||o-5-5S7-5-5-5-5S7-5-5-|-5-5S7-5-5-3-3-3-|
||----------------------|-----------------|


  D5  E5D5      E5D5        E5D5  E5
  |3| |-3-| |3| |-3-|   |3| |-3-| |-3-|
  Q E E E E Q E E E E   Q E E E E Q Q Q
|---------------------|-------------------||
|---------------------|------------------o||
|-7-7S9-7-7-7-7S9-7-7-|-7-7S9-7-7-5-5-5---||
|-7-7S9-7-7-7-7S9-7-7-|-7-7S9-7-7-5-5-5---||
|-5-5S7-5-5-5-5S7-5-5-|-5-5S7-5-5-3-3-3--o||
|---------------------|-------------------||


   Variation C
    F               E           D         C
      |3-|  |--3--| |3| |-3-|   |3| |-3-| |-3-|
      Q  E  E  E  E Q E E E E   Q E E E E Q Q Q
||----------------------------|-----------------|
||o---------------------------|-----------------|
||--/10-10-10-10-10S9-9-9-9-9S|=7-7-7-7-7S5-5-5-|
||----------------------------|-----------------|
||o--/8--8--8--8--8S7-7-7-7-7S|=5-5-5-5-5S3-3-3-|
||----------------------------|-----------------|


  Gm                              FVII
   |3-|  |--3--|  |3-|  |--3--|   |3| |-3-| |-3-|
   Q  E  E  E  E  Q  E  E  E  E   Q E E E E Q Q Q
|-------------------------------|------------------|
|-------------------------------|------------------|
|-------------------------------|------------------|
|--8--8--8--8--8--8--8--8--8--8-|-7-7-7-7-7-7-7-7--|
|-10-10-10-10-10-10-10-10-10-10-|-8-8-8-8-8-8-8-8--|
|-------------------------------|------------------|


  F               E           G              F
    |3-|  |--3--| |3| |-3-|    |3-|  |--3--|  |--3--|
    Q  E  E  E  E Q E E E E    Q  E  E  E  E  Q  Q  Q
|---------------------------|-------------------------|
|---------------------------|-------------------------|
|-/10-10-10-10-10S9-9-9-9-9S|=12-12-12-12-12S10-10-10-|
|---------------------------|-------------------------|
|--/8--8--8--8--8S7-7-7-7-7S|=10-10-10-10-10S=8--8--8-|
|---------------------------|-------------------------|


  Gm                              FVII
   |3-|  |--3--|  |3-|  |--3--|   |3| |-3-| |-3-|
   Q  E  E  E  E  Q  E  E  E  E   Q E E E E Q Q Q
|-------------------------------|------------------||
|-------------------------------|-----------------o||
|-------------------------------|------------------||
|--8--8--8--8--8--8--8--8--8--8-|-7-7-7-7-7-7-7-7--||
|-10-10-10-10-10-10-10-10-10-10-|-8-8-8-8-8-8-8-8-o||
|-------------------------------|------------------||


 Breakdown
  Q=100
  D5                                                     C5      D5
  Gtr III
  W               +W                    +W                H       H
  |                |                     |                |       |
  /                /                     /                /       /

  Q   Q   Q  Q     S  S E  Q   Q   Q     Q   Q   Q  Q     Q   Q   H
|---------------|---------------------|----------------|---------------|
|---------------|---------------------|----------------|---------------|
|----14S=10--9--|--9h10p9S12--10--12--|-----14S=10--9--|-10------------|
|---------------|---------------------|----------------|-----10--12----|
|---------------|---------------------|----------------|---------------|
|---------------|---------------------|----------------|---------------|


    Q=120
    D5                                                     C5      D5
    W               +W                    +W                H       H
    |                |                     |                |       |
    /                /                     /                /       /

    Q   Q   Q  Q     S  S E  Q   Q   Q     Q   Q   Q  Q     Q   Q   H     3x
||----------------|---------------------|----------------|----------------||
||o---------------|---------------------|----------------|---------------o||
||-----14S=10--9--|--9h10p9S12--10--12--|-----14S=10--9--|-10-------------||
||----------------|---------------------|----------------|-----10--12-----||
||o---------------|---------------------|----------------|---------------o||
||----------------|---------------------|----------------|----------------||


    Q=150
    D5
    E   E  E  E S  S E  E  E   E   E  E  E S  S E  E  E
||---------------------------|--------------------------|
||o--------------------------|--------------------------|
||----/14-12-10-9h10p9-12-10-|---/14-12-10-9h10p9-12-10-|
||---------------------------|--------------------------|
||o--------------------------|--------------------------|
||---------------------------|--------------------------|
|
|   Gtr III
|   W                          W
||---------------------------|--------------------------|
||o--------------------------|--------------------------|
||--7------------------------|-7------------------------|
||--7------------------------|-7------------------------|
||o-5------------------------|-5------------------------|
||---------------------------|--------------------------|


                             G  F  E D  C  E D
  E   E  E  E S  S E  E  E    E  E E  E  E E  Q   4x
|--------------------------|----------------------||
|--------------------------|---------------------o||
|---/14-12-10-9h10p9-12-10-|-12-10-9-------9------||
|--------------------------|---------12-10---12---||
|--------------------------|---------------------o||
|--------------------------|----------------------||
|
| W                           E  E E  E  E E  Q   4x
|--------------------------|----------------------||
|--------------------------|---------------------o||
|-7------------------------|-12-10-9--7--5-9--7---||
|-7------------------------|----------------------||
|-5------------------------|-10--8-7--5--3-7--5--o||
|--------------------------|----------------------||


  D5  E5D5      E5D5        E5D5  C5
  |3| |-3-| |3| |-3-|   |3| |-3-| |-3-|
  Q E E E E Q E E E E   Q E E E E Q Q Q
|---------------------|-----------------|
|---------------------|-----------------|
|-7-7S9-7-7-7-7S9-7-7-|-7-7S9-7-7-5-5-5-|
|-7-7S9-7-7-7-7S9-7-7-|-7-7S9-7-7-5-5-5-|
|-5-5S7-5-5-5-5S7-5-5-|-5-5S7-5-5-3-3-3-|
|---------------------|-----------------|
|
| W                     W
|---------------------|-----------------|
|---------------------|-----------------|
|---------------------|-----------------|
|---------------------|-----------------|
|---------------------|-----------------|
|---------------------|-----------------|


  D5  E5D5      E5D5        E5D5  C5
  |3| |-3-| |3| |-3-|   |3| |-3-| |-3-|
  Q E E E E Q E E E E   Q E E E E Q Q Q
|---------------------|-----------------|
|---------------------|-----------------|
|-7-7S9-7-7-7-7S9-7-7-|-7-7S9-7-7-5-5-5-|
|-7-7S9-7-7-7-7S9-7-7-|-7-7S9-7-7-5-5-5-|
|-5-5S7-5-5-5-5S7-5-5-|-5-5S7-5-5-3-3-3-|
|---------------------|-----------------|
|
|                                 |-3-|
| W                     H         Q Q Q
|---------------------|-----------------|
|---------------------|-----------------|
|---------------------|---------------5-|
|---------------------|---------------5-|
|---------------------|---------------3-|
|---------------------|-----------------|


  D5  E5D5      E5D5          E5D5  C5
  |3| |-3-| |3| |-3-|    |3-| |-3-| |-3-|
  Q E E E E Q E E E E    Q  E E E E Q Q Q
|---------------------|-------------------|
|---------------------|-------------------|
|-7-7S9-7-7-7-7S9-7-7-|--7--7S9-7-7-5-5-5-|
|-7-7S9-7-7-7-7S9-7-7-|--7--7S9-7-7-5-5-5-|
|-5-5S7-5-5-5-5S7-5-5-|--5--5S7-5-5-3-3-3-|
|---------------------|-------------------|
|
| W                     +W
|---------------------|-------------------|
|---------------------|-------------------|
|-7-------------------|-(7)---------------|
|-7-------------------|-(7)---------------|
|-5-------------------|-(5)---------------|
|---------------------|-------------------|


  D5    E5D5      E5D5          E5D5  C5
   |3-| |-3-| |3| |-3-|    |3-| |-3-| |-3-|
   Q  E E E E Q E E E E    Q  E E E E Q Q Q
|-----------------------|-------------------|
|-----------------------|-------------------|
|--7--7S9-7-7-7-7S9-7-7-|--7--7S9-7-7-5-5-5-|
|--7--7S9-7-7-7-7S9-7-7-|--7--7S9-7-7-5-5-5-|
|--5--5S7-5-5-5-5S7-5-5-|--5--5S7-5-5-3-3-3-|
|-----------------------|-------------------|
|
| +W                      +W
|-----------------------|-------------------|
|-----------------------|-------------------|
|-(7)-------------------|-(7)---------------|
|-(7)-------------------|-(7)---------------|
|-(5)-------------------|-(5)---------------|
|-----------------------|-------------------|


   Main Riff
    D5  E5D5      E5D5        E5D5  C5
    Gtrs I, III
    |3| |-3-| |3| |-3-|   |3| |-3-| |-3-|
    Q E E E E Q E E E E   Q E E E E Q Q Q
||----------------------|-----------------|
||o---------------------|-----------------|
||--7-7S9-7-7-7-7S9-7-7-|-7-7S9-7-7-5-5-5-|
||--7-7S9-7-7-7-7S9-7-7-|-7-7S9-7-7-5-5-5-|
||o-5-5S7-5-5-5-5S7-5-5-|-5-5S7-5-5-3-3-3-|
||----------------------|-----------------|


  D5  E5D5      E5D5        E5D5  E5
  |3| |-3-| |3| |-3-|   |3| |-3-| |-3-|
  Q E E E E Q E E E E   Q E E E E Q Q Q
|---------------------|-------------------||
|---------------------|------------------o||
|-7-7S9-7-7-7-7S9-7-7-|-7-7S9-7-7-5-5-5---||
|-7-7S9-7-7-7-7S9-7-7-|-7-7S9-7-7-5-5-5---||
|-5-5S7-5-5-5-5S7-5-5-|-5-5S7-5-5-3-3-3--o||
|---------------------|-------------------||


   Variation B
    A5
    |3| |-3-| |3| |-3-|   |3| |-3-| |-3-|
    Q E E E E Q E E E E   Q E E E E Q Q Q
||----------------------|-----------------|
||o---------------------|-----------------|
||----------------------|-----------------|
||--7-7-7-7-7-7-7-7-7-7-|-7-7-7-7-7-7-7-7-|
||o-7-7-7-7-7-7-7-7-7-7-|-7-7-7-7-7-7-7-7-|
||--5-5-5-5-5-5-5-5-5-5-|-5-5-5-5-5-5-5-5-|
|
|   Gtr III
|                         TP
|   |3| |-3-| |3| |-3-|
|   Q E E E E Q E E E E   W
||----------------------|-----------------|
||o---------------------|-----------------|
||----------------------|-5---------------|
||--7-7-7-7-7-7-7-7-7-7-|-7---------------|
||o-7-7-7-7-7-7-7-7-7-7-|-----------------|
||--5-5-5-5-5-5-5-5-5-5-|-----------------|


  C5
   |3-|  |--3--|  |3-|  |--3--|    |3-|  |--3--|  |--3--|
   Q  E  E  E  E  Q  E  E  E  E    Q  E  E  E  E  Q  Q  Q   4x
|-------------------------------|---------------------------||
|-------------------------------|--------------------------o||
|-------------------------------|---------------------------||
|-10-10-10-10-10-10-10-10-10-10-|-10-10-10-10-10-10-10-10---||
|-10-10-10-10-10-10-10-10-10-10-|-10-10-10-10-10-10-10-10--o||
|--8--8--8--8--8--8--8--8--8--8-|--8--8--8--8--8--8--8--8---||
|
|                                  TP             TP
|  |3-|  |--3--|  |3-|  |--3--|
|  Q  E  E  E  E  Q  E  E  E  E    H              H         4x
|-------------------------------|---------------------------||
|-------------------------------|--------------------------o||
|-------------------------------|---------------------------||
|-10-10-10-10-10-10-10-10-10-10-|---------------------------||
|-10-10-10-10-10-10-10-10-10-10-|--8--------------7--------o||
|--8--8--8--8--8--8--8--8--8--8-|--8--------------8---------||


   Main Riff
    D5  E5D5      E5D5        E5D5  C5
    Gtrs I, III
    |3| |-3-| |3| |-3-|   |3| |-3-| |-3-|
    Q E E E E Q E E E E   Q E E E E Q Q Q
||----------------------|-----------------|
||o---------------------|-----------------|
||--7-7S9-7-7-7-7S9-7-7-|-7-7S9-7-7-5-5-5-|
||--7-7S9-7-7-7-7S9-7-7-|-7-7S9-7-7-5-5-5-|
||o-5-5S7-5-5-5-5S7-5-5-|-5-5S7-5-5-3-3-3-|
||----------------------|-----------------|


  D5  E5D5      E5D5        E5D5  E5
  |3| |-3-| |3| |-3-|   |3| |-3-| |-3-|
  Q E E E E Q E E E E   Q E E E E Q Q Q
|---------------------|-------------------||
|---------------------|------------------o||
|-7-7S9-7-7-7-7S9-7-7-|-7-7S9-7-7-5-5-5---||
|-7-7S9-7-7-7-7S9-7-7-|-7-7S9-7-7-5-5-5---||
|-5-5S7-5-5-5-5S7-5-5-|-5-5S7-5-5-3-3-3--o||
|---------------------|-------------------||


   Variation A
    D         E           F              E
    |3| |-3-| |3| |-3-|    |3-|  |--3--| |3| |-3-|
    Q E E E E Q E E E E    Q  E  E  E  E Q E E E E
||----------------------|--------------------------|
||o---------------------|--------------------------|
||--7-7-7-7-7S9-9-9-9-9S|=10-10-10-10-10-9-9-9-9-9-|
||----------------------|--------------------------|
||o-5-5-5-5-5S7-7-7-7-7S|==8--8--8--8--8-7-7-7-7-7-|
||----------------------|--------------------------|


  FVII                            C
  |3| |-3-| |3| |-3-|   |3| |-3-| |-3-|
  Q E E E E Q E E E E   Q E E E E Q Q Q
|---------------------|-------------------|
|---------------------|-------------------|
|---------------------|-------------------|
|-7-7-7-7-7-7-7-7-7-7-|-7-7-7-7-7-2-2-2---|
|-8-8-8-8-8-8-8-8-8-8-|-8-8-8-8-8-3-3-3---|
|---------------------|-------------------|


  D         E           G              F
  |3| |-3-| |3| |-3-|    |3-|  |--3--|  |3-|  |--3--|
  Q E E E E Q E E E E    Q  E  E  E  E  Q  E  E  E  E
|---------------------|-------------------------------|
|---------------------|-------------------------------|
|-7-7-7-7-7S9-9-9-9-9S|=12-12-12-12-12-10-10-10-10-10-|
|---------------------|-------------------------------|
|-5-5-5-5-5S7-7-7-7-7S|=10-10-10-10-10--8--8--8--8--8-|
|---------------------|-------------------------------|


  FVII                            C
  |3| |-3-| |3| |-3-|   |3| |-3-| |-3-|
  Q E E E E Q E E E E   Q E E E E Q Q Q
|---------------------|------------------||
|---------------------|-----------------o||
|---------------------|------------------||
|-7-7-7-7-7-7-7-7-7-7-|-7-7-7-7-7-2-2-2--||
|-8-8-8-8-8-8-8-8-8-8-|-8-8-8-8-8-3-3-3-o||
|---------------------|------------------||


 Outro
  Q=100
  D5
  Gtr III
  W               +W            +W           +W
  |                |             |            |
  /                /             /            /

  Q   Q   Q  Q     Q  Q  H      +W           +W
|---------------|-------------|------------|--------*|
|---------------|-------------|------------|--------*|
|----14S=10--9--|-10S=5S=7----|-(7)--------|-(7)----*|
|---------------|-------------|------------|--------*|
|---------------|-------------|------------|--------*|
|---------------|-------------|------------|--------*|



Duration Legend
---------------
W - whole; H - half; Q - quarter; E - 8th; S - 16th; T - 32nd; X - 64th; a - acciaccatura
+ - note tied to previous; . - note dotted; .. - note double dotted
Uncapitalized letters represent notes that are staccato (1/2 duration)
Irregular groupings are notated above the duration line
Duration letters will always appear directly above the note/fret number it represents the
duration for.  Duration letters with no fret number below them represent rests.  Multi-
bar rests are notated in the form Wxn, where n is the number of bars to rest for.  Low
melody durations appear below the staff

Tablature Legend
----------------
 h   - hammer-on
 p   - pull-off
 b   - bend
 pb  - pre-bend
 r   - bend release (if no number after the r, then release immediately)
 /\  - slide into or out of (from/to "nowhere")
 s   - legato slide
 S   - shift slide
 - natural harmonic
[n]  - artificial harmonic
n(n) - tapped harmonic
 ~   - vibrato
 tr  - trill
 T   - tap
 TP  - trem. picking
 PM  - palm muting
\n/  - tremolo bar dip; n = amount to dip
 \n  - tremolo bar down
 n/  - tremolo bar up
/n\  - tremolo bar inverted dip
 =   - hold bend; also acts as connecting device for hammers/pulls
 <> - volume swell (louder/softer)
 x   - on rhythm slash represents muted slash
 o   - on rhythm slash represents single note slash

Misc Legend
-----------
 |  - bar
||  - double bar
||o - repeat start
o|| - repeat end
*|  - double bar (ending)
 :  - bar (freetime)
 $  - Segno
 &  - Coda
Tempo markers -  = BPM(8/16=s8/s16), where s8 = swing 8ths, s16 = swing 16ths

Добавлено: 31.05.2012
Другие материалы по этой песне:

Страница создана 21.04.2012
http://primanota.ru/desaster/a-touch-of-medieval-darkness-chords.htm
Привет, Гость.
Предлагаем пройти революционный курс по гитаре.
Подарок от PrimaNota.Ru, забирай!