PrimaNota.ru - самый крупный в мире бесплатный архив песенных текстов, аккордов, табулатур и нот


Desaparecidos - Manana - текст песни, таба, видео

Регистрация Запомнить меня
Войти через:  Facebook Google Twitter Vk Yandex Mail.ru

Desaparecidos - Manana - текст песни, таба, видео

Печатать
Просмотров: 134
I didn't make this but it sounds really good to me.


    Intro     Rythym   Distortion
   “One two three (ONE TWO THREE!)”
E | ------------------------------------------------------|
B | ------------------------------------------------------|
G | ------------------------------------------------------|
D | —4--4--4--4--4--4--8--8--8--8--8--8-------------------|
A | —4--4--4--4--4--4--8--8--8--8--8--8-------------------|
E | —2--2--2--2--2--2--6--6--6--6--6--6-------------------|

    Intro     Lead     Distortion
E | ------------------------------------------------------|
B | -------------14----------------14---------------------|
G | ------------------------------------------------------|
D | —13-15----15-------13-15—---15------------------------|
A | ------------------------------------------------------|
E | ------------------------------------------------------|

    Inro     Rythym     Distortion
E | ------------------------------------------------------|
B | ------------------------------------------------------|
G | ------------------------------------------------------|
D | —8--8--8--8--8--8--9--9--9--9--9--9-------------------|
A | —6--6--6--6--6--6--9--9--9--9--9--9-------------------|
E | -------------------7--7--7--7--7--7-------------------|

    Intro     Lead     Distortion
E | ------------------------------------------------------|
B | -------------14----------------14---------------------|
G | ------------------------------------------------------|
D | —13-15----15-------13-15—---15------------------------|
A | ------------------------------------------------------|
E | ------------------------------------------------------|

    Chorus     Both Guitars     Distortion
E | ------------------------------------------------------------------|
B | ------------------------------------------------------------------|
G | -----------------------------------6/8-8-8-8-8-8/10-10-10-10-10---|
D | —4-4-4-4-4-4---8/--3--4-4-4-4-4-4--x-x-x-x-x-x-x-x--x--x--x--x----|
A | —4-4-4-4-4-4---8/--3--4-4-4-4-4-4--4/6-6-6-6-6-6/8--8--8--8--8----|
E | —2-2-2-2-2-2---6/--1--2-2-2-2-2-2---------------------------------|

    Post Chorus     Lead     Clean With Delay
E | ---------------------------------------------------------|
B | —11-11--11-—11-11-11—-11-—11-11-11—-11—-11-11-11--11--11-|
G | —11-11--11-—11-11-11—-11-—11-11-11—-11—-11-11-11--11--11-|
D | —--------------------------------------------------------|
A | ---------------------------------------------------------|
E | ---------------------------------------------------------|
          ^    Tremolo Picking   ^

    Post Chorus     Lead     Clean With Delay
E | ----------------------------------------------------|
B | —111111111111111111111111111111111111111111111111---|
G | —111111111111111111111111111111111111111111111111---|
D | —---------------------------------------------------|
A | ----------------------------------------------------|
E | ----------------------------------------------------|
                ^   Tremolo Picking   ^

    Post Chorus     Rythym     Distortion
E | ----------------------------------------------------|
B | ----------------------------------------------------|
G | ----------------------------------------------------|
D | —4-4—---------4-4----------4-4—---------4-4---------|
A | —4-4----------4-4—---------4-4-—--------4-4---------|
E | —2-2----------2-2—---------2-2---—------2-2---------|
    |_______________ PALM MUTE_________________|

    Outro     Rythym     Distortion
E | ----------------------------------------------------|
B | ----------------------------------------------------|
G | ----------------------------------------------------|
D | —4-4-----—4-4------4-4-----—4-4------4-4-—----4-4---|
A | —4-4------4-4—-----4-4—-----4-4—-----4-4-—----4-4---|
E | —2-2------2-2—-----2-2—-----2-2—-----2-2--—---2-2---|
    |__________________ PALM MUTE____________________|

Song Order:
Intro x5
Verse 1 (bass only)
Chorus x2
Post Chorus
Intro x2
Verse 2 (bass only)
Chorus x2
Outro
Добавлено: 15.06.2012
Другие материалы по этой песне:

Страница создана 08.03.2012
http://primanota.ru/desaparecidos/manana-chords.htm
Привет, Гость.
Предлагаем пройти революционный курс по гитаре.
Подарок от PrimaNota.Ru, забирай!