PrimaNota.ru - самый крупный в мире бесплатный архив песенных текстов, аккордов, табулатур и нот


Dermis Tatú - Alma Perpetua - таба, видео

Регистрация Запомнить меня
Войти через:  Facebook Google Twitter Vk Yandex Mail.ru

Dermis Tatú - Alma Perpetua - таба, видео

Печатать
Просмотров: 90
Capo en el primer traste con afinación standard

Intro/ riff** ( se usa durante los versos)

     E  E  E  E  E  E  E  E   
E||--------------------------|
B||--------------------------|
G||---Un compas, silencio----|
D||--------------------------|
A||--------------------------|
E||--------------------------|


  ^                    
  H        Q    E  E   
--2--------L----L-----|
--3--------L----L-----|
--2--------L----L-----|
--0--------L----L--0--|
----------------------|
----------------------|


  E  E  E  E  E  E  E  E   
--------------------------|
--3-----3-----3-----3-----|
--2-----2-----2-----2-----|
--L--------0-----------4--|
-----4-----------4--------|
--------------------------|


                    >  >   
  E  E  E  E  E  E  E  E   
--------2--L--L--L--------|
-----3--------------------|
--2-----------------------|
--L-----------------------|
--------------------------|
--------------------0--2--|


  >                        
  E  E  E  E  E  E  E  E   
--------------------------|
-----3-----3-----3-----3--|
-----2-----2-----2-----2--|
--------------------------|
--------------------------|
--3-----2-----3-----2-----|


  E  E  E  E  E  E  E  E   
-----------2--L--L--L-----|
--------3-----------------|
-----2--------------------|
--4--------------------0--|
--------------------------|
--------------------------|


  E  E  E  E  E  E  E  E   
--------------------------|
--3-----3-----3-----3-----|
--2-----2-----2-----2-----|
-----------0-----------0--|
-----4-----------4--------|
--------------------------|


                    >  >   
  E  E  E  E  E  E  E  E   
--------2--L--L--L--------|
-----3--------------------|
--2-----------------------|
--------------------------|
--------------------------|
--------------------0--2--|


  >                        
  E  E  E  E  E  E  E  E   
--------------------------|
-----3-----3-----3-----3--|
-----2-----2-----2-----2--|
--------------------------|
--------------------------|
--3-----2-----3-----2-----|


  E  E  E  E  E  E  E  E    
-----------2--L--L--L--L--||
--------3-----------------||
-----2--------------------||
--4-----------------------||
--------------------------||
--------------------------||


-------------------------------------º-----------------------------------

Verso

D5 - D/F# - D5 - D/F#- C3
Un niño atento que sin razón
E - F# - C/D - C/F# - C/D - C3
el largo sueño un tanto extraño
D5 - D/F# - D5 - D/F#- C3
ha despertado en su interés
E - F# - C/D - C/F# - C/D - C3
que de otro sueño ha regresado


Cambio/Coro

A# - C - C#   Cadd9         G/B
        Es sólo olvido tras perseguir
D             A          D             A
difícil... decir... su identidad... duerme...
   D             A      D                        D5 
conciencia del más allá... ha regresado a él...

Riff 2**

E  E  E  E  E  E  E  E   
--------------------------|
-----3-----3-----3-----3--|
-----2-----2-----2-----2--|
--0-----------0-----------|
--------4-----------4-----|
--------------------------|


  E  E  E  E  E  E  E  E   
-----------2--L--L--------|
--------3-----------------|
-----2--------------------|
--0-----------------------|
--------------------------|
--------------------0--2--|


  E  E  E  E  E  E  E  E   
--------------------------|
-----3-----3-----3-----3--|
-----2-----2-----2-----2--|
--------------------------|
--------------------------|
--3-----2-----3-----2-----|


  E  E  E  E  E  E  E  E   
-----------2--L--L--L-----|
--------3-----------------|
-----2--------------------|
--0--------------------0--|
--------------------------|
--------------------------|


  E  E    E  E  E  E  E  E   
----------------------------|
----------------------------|
-------------------------2--|
--L--L--2g4--2--0-----------|
-------------------4--2--L--|
----------------------------|


  E  E  E  E  E  E  E  E   
-----2--L--L--L-----------|
--3-----------------------|
--------------------------|
--------------------------|
--------------------------|
-----------------0--2--3--|


  E  E  E  E  E  E  E  E   
--------------------------|
--3-----3-----3-----3-----|
--2-----2-----2-----2-----|
-----------------------0--|
--------------------------|
-----2-----3-----2--------|


  E  E  E  E  E  E    
--------2--L--L--L--||
-----3--------------||
--2-----------------||
--------------------||
--------------------||
--------------------||
-------------------------------------------------º-----------------
D5 - D/F# - D5 - D/F#- C3
En su retorno supo al ver
E - F# - C/D - C/F# - C/D - C3
su condición es pasajera
D5 - D/F# - D5 - D/F#- C3
su desengaño está muy bien
E - F# - C/D - C/F# - C/D - C3
para un alma que es perpetua

Cambio/ Coro

A# - C - C#   Cadd9         G/B
Abarca todo como un ciclón
D             A          D             A
Las vueltas... marean... te pierdes... en esa...
 D             A      D                        D5 
y no sabes... en dónde estás...

Tarará... Tarará...
Tarará...


Ultimo riff**

E  E  E  E  E  E  E  E   
--------------------------|
-----3-----3-----3-----3--|
-----2-----2-----2-----2--|
--0-----------0-----------|
--------4-----------4-----|
--------------------------|


  E  E  E  E  E  E  E  E   
-----------2--L--L--L-----|
--------3-----------------|
-----2--------------------|
--4-----------------------|
--------------------------|
-----------------------0--|


  E  E  E  E  E  E  E  E   
--------------------------|
--------3-----3-----3-----|
--------2-----2-----2-----|
--------------------------|
--------------------------|
--2--3-----2-----3-----2--|


  E  E  E  E  E  E  E  E   
--------------2--L--L--L--|
--3--------3--------------|
--2-----2-----------------|
-----4--------------------|
--------------------------|
--------------------------|


  E  E  E  E  E  E  E  E   
--------------------------|
-----3-----3-----3-----3--|
-----2-----2-----2-----2--|
--0-----------0-----------|
--------4-----------4-----|
--------------------------|


  E  E  E  E  E  E  E  E   
-----------2--L--L--L-----|
--------3-----------------|
-----2--------------------|
--4-----------------------|
--------------------------|
-----------------------0--|


  E  E  E  E  E  E  E  E   
--------------------------|
--------3-----3-----3-----|
--------2-----2-----2-----|
--------------------------|
--------------------------|
--2--3-----2-----3-----2--|


  E  E  E  E  E  E  E  E   
--------------2--L--L--L--|
--3--------3--------------|
--2-----2-----------------|
-----4--------------------|
--------------------------|
--------------------------|


  E  E  E    E  E  E  E  E   
----------------------------|
----------------------------|
----------------------------|
--0--L--L--2g4--2--0--------|
----------------------4--2--|
----------------------------|


  E  E  E  E  E  E  E  E   
--------2--L--L--L--3--L--|
-----3--------------3--L--|
--2-----------------------|
--------------------------|
--L-----------------------|
--------------------------|


  E  E  E  E  E  E  E  E   
--2--L--0--L--L--0--L--L--|
--3--L--3--L--L--2--L--L--|
--------------------------|
--------------------------|
--------------------------|
--------------------------|


  ^                 
  W                 
-------------------|
--3----------------|
--2----------------|
--0----------------|
-------------------|
-------------------|


   Q     Q     Q     E  E   
--(5)----L----(0)----L--L--|
---------------------------|
---------------------------|
---------------------------|
---------------------------|
---------------------------|


-------------------|-------------------||
-------------------|-------------------||
-------------------|-------------------||
-------------------|-------------------||
-------------------|-------------------||
-------------------|-------------------||




Duration Legend
---------------
W - whole
H - half
Q - quarter
E - 8th
S - 16th
T - 32nd
X - 64th
. - note dotted
|-n-|  - n-tuplets


Tablature Legend
----------------
L - tied note
x - dead note
g - grace note
(n) - ghost note
> - accentuded note
NH - natural harmonic
AH - artificial harmonic
TH - tapped harmonic
SH - semi harmonic
PH - pitch harmonic
h - hammer on
p - pull off
b - bend
br - bendRelease
pb - preBend
pbr - preBendRelease
brb - bendReleaseBend
\n/ - tremolo bar dip
\n - tremolo bar dive
-/n - tremolo bar Release up
/n\ - tremolo bar inverted dip
/n - tremolo bar return
-\n - tremolo bar Release down
S - shift slide
s - legato slide
/ -  slide into from below or out of upwards
\ -  slide into from above or out of downwards
~ - vibrato
W - wide vibrato
tr - trill
TP - tremolo picking
T - tapping
S - slap
P - pop
< - fade in
^ - brush up
v - brush down
Добавлено: 29.12.2015
Вам также может быть интересно:
Другие материалы по этой песне:
  • Аккорды и текст

Страница создана 29.12.2015
http://primanota.ru/dermis-tatu/alma-perpetua-chords.htm
Привет, Гость.
Предлагаем пройти революционный курс по гитаре.
Подарок от PrimaNota.Ru, забирай!