PrimaNota.ru - самый крупный в мире бесплатный архив песенных текстов, аккордов, табулатур и нот


Derek Webb - Lover - аккорды и текст, таба, видео

Регистрация Запомнить меня
Войти через:  Facebook Google Twitter Vk Yandex Mail.ru

Derek Webb - Lover - аккорды и текст, таба, видео

Печатать
Просмотров: 91
Lover
Derek Webb
-----------------------------------------------------------------------------
Derek Webb
by:insert-emo-here
Email:berenbnet@yahoo.com

Tuning:Standard - Capo V

Intro:
(The last h2 is optional it fills the gap in time though and sounds good)

      C
e|----0--0-0-0-0------0-0-0-0------0-0-0-0---------------------------------|
B|----1--1-1-1-1------1-1-1-1------1-1-1-1---------------------------------|
G|----0----------0h2-------------------------------------------------------|
D|----2-----------------------0h2------------3-2-0-h2----------------------|
A|----3--------------------------------------------------------------------|
E|----x--------------------------------------------------------------------|

Progression:
C F C
C Em F G (riff 1)
Am Em F G (riff 2)
C Am Am/G F G C
(Play the intro as an interlude)

Riff 1 - I play this fast as a transition to the Am, but it's optional
         G
e|-------3---3-3-3----|
B|-------3---3-3-3----|
G|-------0---0-0-0----|
D|-------0---3-2-0----|
A|-------3------------|
E|-------3------------|

Riff 2
         G                           C(of next line)
e|-------3---3-3-----------------------------------------------------------|
B|-------3---3-3-----------------------------------------------------------|
G|-------0---------0h2--2h3--3-2-0-----------------------------------------|
D|-------0-----------------------------------------------------------------|
A|-------3-----------------------------------------------------------------|
E|-------3-----------------------------------------------------------------|
Добавлено: 25.12.2013
Другие материалы по этой песне:
  • Аккорды и текст

Страница создана 31.07.2012
http://primanota.ru/derek-webb/lover-chords.htm
Привет, Гость.
Предлагаем пройти революционный курс по гитаре.
Подарок от PrimaNota.Ru, забирай!