PrimaNota.ru - самый крупный в мире бесплатный архив песенных текстов, аккордов, табулатур и нот


Der W - Urlaub Mit Stalin - таба, бас-таба, видео

Регистрация Запомнить меня
Войти через:  Facebook Google Twitter Vk Yandex Mail.ru

Der W - Urlaub Mit Stalin - таба, бас-таба, видео

Печатать
Просмотров: 122
Уроки эстрадного вокала в Санкт-Петербурге
Das ist mein zweites Lied  welches ich von meinem Gitarren-Lehrer getabbed bekommen hab 
viel Spass =)

Strophe 1 Gitarre 1
e|-------------------------------------------------------|  |----|
B|-3-3-3-3-3-3-3-3--5-5-5-5----------8-8-8-8-8-8-8-7-8-10|  |-10-|
G|-4-4-4-4-4-4-4-4--7-7-7-7-5-5-5-5--9-9-9-9-9-9-9-7-7-9-|3x|-9--|2x
D|-4-4-4-4-4-4-4-4--7-7-7-7-7-7-7-7--9-9-9-9-9-9-9-7-8-11|  |-11-|
A|-2-2-2-2-2-2-0-0--5-5-5-5-7-7-7-7--7-9-9-9-9-9-9-9-9-9-|  |-9--|
E|--------------------------5-5-5-5----------------------|  |----|

Refrain Gitarre 1
E|-----------------------------------------------------------------|
B|-----------------------------------------------------------------|
G|-----------------------------------------------------------------|2x
D|-9-9-9-9-9-9-9-9-7-7-7-7-7-7-7-7-5-5-5-5-5-5-5-5-2-2-2-2-2-2-2-2-|
A|-9-9-9-9-9-9-9-9-7-7-7-7-7-7-7-7-5-5-5-5-5-5-5-5-2-2-2-2-2-2-2-2-|
E|-7-7-7-7-7-7-7-7-5-5-5-5-5-5-5-5-3-3-3-3-3-3-3-3-0-0-0-0-0-0-0-0-|

Refrain Gitarre 2
e|--------------------|
B|------------------7-|
G|-7-6--6-7--7-9--9---| 2x
D|--------------------|
A|--------------------|
E|--------------------|

Strophe 2 Gitarre 1
e|-9-9-9-9-7-7----------------------------------------------------------|
B|-7-7-7-7-7-7-------------10-10-10-10-10-/8-8-8-8-8-8-7-8--8--8--8--8--|
G|-7-7-7-7-7-7-----7-7-7-7/9--9--9--9--9--/7-7-7-7-7-7-7-7--7--7--7--7--|
D|-7-7-7-7-7-7-7-7-7-7-7-7/11-11-11-11-11-/9-9-9-9-9-9-7-9--9--9--9--9--|
A|-9-9-9-9-9-9-7-7-5-5-7-7/9--9--9--9-/12-/7-7-7-7-7-7-9-10-10-10-10-10-|
E|-7-7-7-7-7-7-5-5------------------------------------------------------|

  -------------|
  -10-10-10-10-|
  -7--7--7--7--|
  -11-11-11-11-|
  -7--7--7--7--|
  -------------|

e|-----------------------------------------------------|  |------|
B|-3-3-3-3-3-3-3-3--5-5-5-5----------8-8-8-8-8-8-8-7-8-|  |10-10-|
G|-4-4-4-4-4-4-4-4--7-7-7-7-5-5-5-5--9-9-9-9-9-9-9-7-7-|2x|9--9--|1x
D|-4-4-4-4-4-4-4-4--7-7-7-7-7-7-7-7--9-9-9-9-9-9-9-7-8-|  |11-11-|
A|-2-2-2-2-2-2-0-0--5-5-5-5-7-7-7-7--7-9-9-9-9-9-9-9-9-|  |9--9--|
E|--------------------------5-5-5-5--------------------|  |------|


Refrain 2 Gitarre 1
E|-----------------------------------------------------------------|
B|-----------------------------------------------------------------|
G|-----------------------------------------------------------------|2x
D|-9-9-9-9-9-9-9-9-7-7-7-7-7-7-7-7-5-5-5-5-5-5-5-5-2-2-2-2-2-2-2-2-|
A|-9-9-9-9-9-9-9-9-7-7-7-7-7-7-7-7-5-5-5-5-5-5-5-5-2-2-2-2-2-2-2-2-|
E|-7-7-7-7-7-7-7-7-5-5-5-5-5-5-5-5-3-3-3-3-3-3-3-3-0-0-0-0-0-0-0-0-|

Refrain Gitarre 2
e|--------------------|
B|------------------7-|
G|-7-6--6-7--7-9--9---| 2x
D|--------------------|
A|--------------------|
E|--------------------|

Brigde
e|-0~---------------------------7---7-----9-----------|
B|-0~------7-8-7~--7-7-8-7-7~----------------14----11-|
G|-0~--7-9-9-9-9~--9-9-9-9-6~-7---7---7/9-------12----|
D|-2~-------------------------------------------------|
A|-2~-------------------------------------------------|
E|-0~-------------------------------------------------|

Solo (der meiste teil
e|---------------------------------------------------------------------------|
B|-12-12-12-15-14-12-12/14/12-----7----7-------------------------------------|
G|-14/16-16-------------------14--9/11-11/9-7/9/7----------------------------|
D|------------------------------------------------9-7-9-7--------------------|
A|--------------------------------------------------------9-7/5-------5-7/17-|
E|--------------------------------------------------------------7-5-7--------|

  -19----19-19-22-22/24....|
  -22/24-24------------....|
  ---------------------....|
  ---------------------....|
  ---------------------....|
  ---------------------....|

Refrain Gitarre 1
e|-----------------------------------------------------------------|
B|-----------------------------------------------------------------|
G|-----------------------------------------------------------------|4x
D|-9-9-9-9-9-9-9-9-7-7-7-7-7-7-7-7-5-5-5-5-5-5-5-5-2-2-2-2-2-2-2-2-|
A|-9-9-9-9-9-9-9-9-7-7-7-7-7-7-7-7-5-5-5-5-5-5-5-5-2-2-2-2-2-2-2-2-|
E|-7-7-7-7-7-7-7-7-5-5-5-5-5-5-5-5-3-3-3-3-3-3-3-3-0-0-0-0-0-0-0-0-|

Refrain Gitarre 2
e|--------------------|
B|------------------7-|
G|-7-6--6-7--7-9--9---|4x
D|--------------------|
A|--------------------|
E|--------------------|

Ending/Fadeout
e|-------2-------0-------2-------0-|
B|-------3-------2-------0-------2-|
G|-----4-------4-------4-------4---|
D|---4-------4-------4-------4-----|
A|-2-------0-----------------------|
E|-----------------3-------0-------|
Добавлено: 05.10.2013
Вам также может быть интересно:
Другие материалы по этой песне:
  • Аккорды и текст

Страница создана 23.04.2012
http://primanota.ru/der-w/urlaub-mit-stalin-chords.htm
Привет, Гость.
Предлагаем пройти революционный курс по гитаре.
Подарок от PrimaNota.Ru, забирай!