PrimaNota.ru - самый крупный в мире бесплатный архив песенных текстов, аккордов, табулатур и нот


Der W - Sekte Oder Selters - таба, видео

Регистрация Запомнить меня
Войти через:  Facebook Google Twitter Vk Yandex Mail.ru

Der W - Sekte Oder Selters - таба, видео

Печатать
Просмотров: 121
der W - Sekte oder Selters [Rhythmusgitarre tabbed by HSR]

Tuning Dropped D: 
E
H
G
D
A
D

Part 1: Wiederholt sich bis zum Pre-Chorus
                                     
|----------------------------------|
|----------------------------------|
|----------------------------------|
|--0-0---------0-0-----------------|
|--0-0---------0-0-----------------|
|--0-0---------0-0-----------------|

    
|----------------------------------|
|----------------------------------|
|----------------------------------|
|--0-0---------0-0---0-0---3-------|
|--0-0---------0-0---0-0---3-------|
|--0-0---------0-0---0-0---3-------|

Pre-Chorus
         
|----------------------------------|
|----------------------------------|
|----------------------------------|
|----------------0-----------------|
|----------------0-----------------|
|--5-5-5-5-5-3---0-----------------|

|----------------------------------|
|----------------------------------|
|----------------------------------|
|----------------7-----------------|
|----------------7-----------------|
|--5-5-5-5-5-3---7-----------------|

|----------------------------------|
|----------------------------------|
|----------------------------------|
|----------------0-----------------|
|----------------0-----------------|
|--5-5-5-5-5-3---0-----------------|

|----------------------------------|
|----------------------------------|
|----------------------------------|
|----------------7-7-7-7-7-7-7-7-7-|
|----------------7-7-7-7-7-7-7-7-7-|
|--5-5-5-5-5-3---7-7-7-7-7-7-7-7-7-|...


Chorus 2x:

   
----------------------------|----------------------------|
----------------------------|----------------------------|
----------------------------|----------------------------|
(7)S--0--0--0S--8--8--8--8--|--8S--3--3--3S--5--5--5--5--|
(7)S--0--0--0S--8--8--8--8--|--8S--3--3--3S--5--5--5--5--|
(7)S--0--0--0S--8--8--8--8--|--8S--3--3--3S--5--5--5--5--|


  E   E  E  E   E  E  E  E     E   E  E  E    E   E   E   E   
----------------------------|--------------------------------|  
----------------------------|--------------------------------|
----------------------------|--------------------------------|
--5S--0--0--0S--8--8--8--8--|--8S--3--3--3S--10--10--10--10--|
--5S--0--0--0S--8--8--8--8--|--8S--3--3--3S--10--10--10--10--|
--5S--0--0--0S--8--8--8--8--|--8S--3--3--3S--10--10--10--10--|

Dann wiederholt sich das ganze wieder.

S steht fuer Slide.

Gitarren-Tab fuer Nicht-Guitar-Pro-Nutzer. :)

MfG HSR
Добавлено: 03.05.2012
Другие материалы по этой песне:

Страница создана 14.03.2012
http://primanota.ru/der-w/sekte-oder-selters-chords.htm
Привет, Гость.
Предлагаем пройти революционный курс по гитаре.
Подарок от PrimaNota.Ru, забирай!