PrimaNota.ru - самый крупный в мире бесплатный архив песенных текстов, аккордов, табулатур и нот


Der W - Schatten - таба, видео

Регистрация Запомнить меня
Войти через:  Facebook Google Twitter Vk Yandex Mail.ru

Der W - Schatten - таба, видео

Печатать
Просмотров: 177
-------------------------------------------------------------------------------
                             Schatten - Der W
-------------------------------------------------------------------------------
Tabbed by: House
Email: -

Tuning: Standard


Intro:

e|---------------------------------------------------------------------------|
B|---------------------------------------------------------------------------|
G|------------6----------------6-----666-------------6-666-------------6-----|
D|---777-6-77---767-6777776-77---767-----767-77-6-77-------767-77-6-77-------|
A|---------------------------------------------------------------------------|
E|---------------------------------------------------------------------------|

Fuer die Strophen wiederholt ihr einfach den ersten Teil des Intros.


Pre-Chorus:

e|---------------------------------------------------------------------------|
B|---------------------------------------------------------------------------|
G|--------------------6-6666-6-66--------------------------------------------|
D|--77-7-77-7-77-9-99-------------9-99-6-77-6-77-----------------------------|
A|---------------------------------------------------------------------------|
E|---------------------------------------------------------------------------|
"Immer wieder zu sich holen..."


e|---------------------------------------------------------------------------|
B|---------------------------------------------------------------------------|
G|--77777777777777776666666666666666-----------------------------------------|
D|--77777777777777776666666666666666-----------------------------------------|
A|--55555555555555554444444444444444-----------------------------------------|
E|---------------------------------------------------------------------------|
Abgedaempft beim zweiten Pre-Chorus ("Dem was du bist")


Chorus:

e|-------------------------------------------------------------------------------|
B|-------------------------------------------------------------------------------|
G|---------------66677777777------------------66677777777------------------------|
D|--444444444444466677777777777275244-44-4-444666777777777772762-----------------|
A|--444444444444444455555555777276244-44-4-444444555555557772762-----------------|
E|--222222222222244455555555555054022-22-2-222444555555555550540-2222222244455---|


Post-Chorus:

e|--------------------------------------------------------------------------------------------|
B|--------------------------------------------------------------------------------------------|
G|---------------------------------------------------------66-6-------------------------------|
D|--77-7-44-4-22-2-44-4-77-7-44-4-22-2-99-6-77-7-44-4-99-9------99-9-77-7-44-4-22-2-424-------|
A|--------------------------------------------------------------------------------------------|
E|--------------------------------------------------------------------------------------------|


Verse
Chorus

Bridge:

e|----------------------------------------------------------------------------------------|
B|----------------------------------------------------------------------------------------|
G|--77-77-66-66-------------------77-77-66-66-------------------77-77-66-66-77-77-66-66---|
D|--77-77-66-66-4-4444444---------77-77-66-66-4-4444444---------77-77-66-66-77-77-66-66---|
A|--55-55-44-44-4-4444444---------55-55-44-44-4-4444444---------55-55-44-44-55-55-44-44---|
E|--55-55-44-44-2-222222244455555-55-55-44-44-2-222222244455555-55-55-44-44-55-55-44-44---|

Und zurueck zum Refrain ;)


************************************

| /   slide up
| \   slide down
| h   hammer-on
| p   pull-off
| ~   vibrato
| +   harmonic
| x   Mute note
| b   Bend
| pb  Pre-bend
| br  Bend release
| pbr Pre-bend release
| brb Bend release bend

Добавлено: 28.06.2012
Другие материалы по этой песне:
  • Аккорды и текст

Страница создана 28.06.2012
http://primanota.ru/der-w/schatten-chords.htm
Привет, Гость.
Предлагаем пройти революционный курс по гитаре.
Подарок от PrimaNota.Ru, забирай!