PrimaNota.ru - самый крупный в мире бесплатный архив песенных текстов, аккордов, табулатур и нот


Der W - Geschichtenhasser - таба, видео

Регистрация Запомнить меня
Войти через:  Facebook Google Twitter Vk Yandex Mail.ru

Der W - Geschichtenhasser - таба, видео

Печатать
Просмотров: 105
Stephan "Der W" Weidner - Geschichtenhasser


Intro: Disortion
e|-----------------------------------------------------------------------|
B|-----------------------------------------------------------------------|
G|--7-7-7-7-7-7-7-7-5-5-5-5-5-5-5-5-3-3-3-3-3-3-3-3-3-3-3-3-3-3-3-3------|
D|--7-7-7-7-7-7-7-7-5-5-5-5-5-5-5-5-3-3-3-3-3-3-3-3-3-3-3-3-3-3-3-3------|
A|--5-5-5-5-5-5-5-5-3-3-3-3-3-3-3-3-1-1-1-1-1-1-1-1-1-1-1-1-1-1-1-1------|
E|-----------------------------------------------------------------------| X2

Verse 1: Disortion
e|------------------------------------------------------------------|
B|------------------------------------------------------------------|
G|------------------------------------------------------------------|
D|--5--5\3--3\2--2/3--3h5--5/7--5--5\3--3\2--2/3--3h5--5/7----------|
A|------------------------------------------------------------------|
E|------------------------------------------------------------------| X2

e|-----------------------------------------------------------------------|
B|-----------------------------------------------------------------------|
G|--7-7-7-7-7-7-7-7-5-5-5-5-5-5-5-5-3-3-3-3-3-3-3-3-3-3-3-3-3-3-3-3------|
D|--7-7-7-7-7-7-7-7-5-5-5-5-5-5-5-5-3-3-3-3-3-3-3-3-3-3-3-3-3-3-3-3------|
A|--5-5-5-5-5-5-5-5-3-3-3-3-3-3-3-3-1-1-1-1-1-1-1-1-1-1-1-1-1-1-1-1------|
E|-----------------------------------------------------------------------|

e|------------------------------------------------------------------|
B|------------------------------------------------------------------|
G|------------------------------------------------------------------|
D|--5--5\3--3\2--2/3--3h5--5/7--5--5\3--3\2--2/3--3h5--5/7----------|
A|------------------------------------------------------------------|
E|------------------------------------------------------------------| X2

Chorus: Disortion
e|------------------------------------------------------------------|
B|------------------------------------------------------------------|
G|--5-5-5-5-5-5-5-5-----------------9-9-9-9-9-9-9-9-9-9-9-9-9-9-9-9-|
D|--5-5-5-5-5-5-5-5-7-7-7-7-7-7-7-7-9-9-9-9-9-9-9-9-9-9-9-9-9-9-9-9-|
A|--3-3-3-3-3-3-3-3-7-7-7-7-7-7-7-7-7-7-7-7-7-7-7-7-7-7-7-7-7-7-7-7-|
E|------------------5-5-5-5-5-5-5-5---------------------------------| X2


                         *Keyboard*


Verse 2: Disortion
e|------------------------------------------------------------------|
B|------------------------------------------------------------------|
G|------------------------------------------------------------------|
D|--5--5\3--3\2--2/3--3h5--5/7--5--5\3--3\2--2/3--3h5--5/7----------|
A|------------------------------------------------------------------|
E|------------------------------------------------------------------| X2

e|-----------------------------------------------------------------------|
B|-----------------------------------------------------------------------|
G|--7-7-7-7-7-7-7-7-5-5-5-5-5-5-5-5-3-3-3-3-3-3-3-3-3-3-3-3-3-3-3-3------|
D|--7-7-7-7-7-7-7-7-5-5-5-5-5-5-5-5-3-3-3-3-3-3-3-3-3-3-3-3-3-3-3-3------|
A|--5-5-5-5-5-5-5-5-3-3-3-3-3-3-3-3-1-1-1-1-1-1-1-1-1-1-1-1-1-1-1-1------|
E|-----------------------------------------------------------------------|

e|------------------------------------------------------------------|
B|------------------------------------------------------------------|
G|------------------------------------------------------------------|
D|--5--5\3--3\2--2/3--3h5--5/7--5--5\3--3\2--2/3--3h5--5/7----------|
A|------------------------------------------------------------------|
E|------------------------------------------------------------------| X2

Chorus: Disortion
e|------------------------------------------------------------------|
B|------------------------------------------------------------------|
G|--5-5-5-5-5-5-5-5-----------------9-9-9-9-9-9-9-9-9-9-9-9-9-9-9-9-|
D|--5-5-5-5-5-5-5-5-7-7-7-7-7-7-7-7-9-9-9-9-9-9-9-9-9-9-9-9-9-9-9-9-|
A|--3-3-3-3-3-3-3-3-7-7-7-7-7-7-7-7-7-7-7-7-7-7-7-7-7-7-7-7-7-7-7-7-|
E|------------------5-5-5-5-5-5-5-5---------------------------------| X2

                         *Keyboard*


"Wir sprechen über Gott, Gott und den Tod, wir erzählen uns Märchen, die es zu erzählen 
die es zu erzählen lohnt!"

Danach:
e|-----------------------------------------------------------------------------|
B|-----------------------------------------------------------------------------|
G|--5-7--5-7--5-7----5-7--5-7--5-7----5-7--5-7--5-7----12--10--9--10-9-10------|
D|--5-7--5-7--5-7----5-7--5-7--5-7----5-7--5-7--5-7----12--10--9--10-9-10------|
A|--5-5--5-5--5-5----5-5--5-5--5-5----5-5--5-5--5-5----10---8--7---8-7--8------|
E|-----------------------------------------------------------------------------|

"Alles was ich sage..."

e|------------------------------------|
B|------------------------------------|
G|--9-9-9-9-9-9-9-9-9-9-9-9-9-9-9-9---|
D|--9-9-9-9-9-9-9-9-9-9-9-9-9-9-9-9---|
A|--7-7-7-7-7-7-7-7-7-7-7-7-7-7-7-7---|
E|------------------------------------|

e|------------------------------------------------------------------|
B|------------------------------------------------------------------|
G|--5-5-5-5-5-5-5-5-----------------9-9-9-9-9-9-9-9-9-9-9-9-9-9-9-9-|
D|--5-5-5-5-5-5-5-5-7-7-7-7-7-7-7-7-9-9-9-9-9-9-9-9-9-9-9-9-9-9-9-9-|
A|--3-3-3-3-3-3-3-3-7-7-7-7-7-7-7-7-7-7-7-7-7-7-7-7-7-7-7-7-7-7-7-7-|
E|------------------5-5-5-5-5-5-5-5---------------------------------|


e|-----------------------------------------------------------------------------|
B|-----------------------------------------------------------------------------|
G|--5-7--5-7--5-7----5-7--5-7--5-7----5-7--5-7--5-7----12--10--9--10-9-10-7~~--|
D|--5-7--5-7--5-7----5-7--5-7--5-7----5-7--5-7--5-7----12--10--9--10-9-10-7~~--|
A|--5-5--5-5--5-5----5-5--5-5--5-5----5-5--5-5--5-5----10---8--7---8-7--8-5~~--|
E|-----------------------------------------------------------------------------|


Outro: Disortion
e|--------5~~--------5---------------5---------5----------|
B|----5-6----8~~~-5---8-5-6-5~~~-6-68--8~~~-5---8-5-6-5~~~|
G|--7~----------------------------------------------------|
D|--------------------------------------------------------|
A|--------------------------------------------------------|
E|--------------------------------------------------------|

So..ich denke das sollte zum größten Teil richtig sein..Verbesserungsvorschläge sind 
immer Willkommen;)
Also viel Spaß beim nachspielen=)
Добавлено: 21.06.2012
Другие материалы по этой песне:

Страница создана 21.06.2012
http://primanota.ru/der-w/geschichtenhasser-chords.htm
Привет, Гость.
Предлагаем пройти революционный курс по гитаре.
Подарок от PrimaNota.Ru, забирай!