PrimaNota.ru - самый крупный в мире бесплатный архив песенных текстов, аккордов, табулатур и нот


Depswa - Two Angels And a Dream - текст песни, таба, видео

Регистрация Запомнить меня
Войти через:  Facebook Google Twitter Vk Yandex Mail.ru

Depswa - Two Angels And a Dream - текст песни, таба, видео

Печатать
Просмотров: 236
Song: Two angels and a Dream
Artist: Depswa
Album: Two angels and a Dream
 
 
Tabbed by Ben Haskett (luzer7072@yahoo.com)
Drop-d tuning
 
 
Main Riff
6|------------------------|------------------------|
5|------------------------|------------------------|
4|----7-----7-------------|----7-----7-------------|
3|--6-----4---------------|--6-----4---------------|
2|7-----5-----2/4/6\4-6-4-|7-----5-----2/4/6\4-6-4-|
1|------------------------|------------------------|
 
 
Chorus Riff                     VII         II
 3x                  ...then,   
6|------------------------|------------------------|
5|------------------------|------------------------|
4|------6-6-6-------------|------------------------|
3|0-0-0-x-x-x-4-4-4-4-4-4-|7-7-7-7-7-7-2-2-2-2-2-2-|
2|0-0-0-4-4-4-4-4-4-4-4-4-|7-7-7-7-7-7-2-2-2-2-2-2-|
1|0-0-0-------4-4-4-4-4-4-|7-7-7-7-7-7-2-2-2-2-2-2-|
 
 
1st Bridge - Played over chourus riff
 3x                  ...then,     
6|------------------------|------------------------|
5|------------------------|------------------------|
4|------6-6-6/9-9-9-9-9-9-|------------------------|
3|0-0-0-x-x-x/x-x-x-x-x-x-|7-7-7-7-7-7-2-2-2-2-2-2-|
2|0-0-0-4-4-4/7-7-7-7-7-7-|7-7-7-7-7-7-2-2-2-2-2-2-|
1|0-0-0-------------------|7-7-7-7-7-7-2-2-2-2-2-2-|
 
2nd Bridge
6|------------------------|------------------------|
5|------5-----------------|------5-----------------|
4|----4---6-4-------------|----4---6-4-------------|
3|4-6---------4=--4=--4=--|4-6---------4=--4=--4=--|
2|------------------------|------------------------|
1|------------------------|------------------------|
 
Verse Rhythm (rhythm guitar riff for the verse)
6|------------------------|------------------------|
5|------------------------|------------------------|
4|-I----------------------|------------------------|
3|---DON'T----------------|------------------------|
2|---------KNOW-----------|------------------------|
1|--------------!---------|------------------------|

     
Добавлено: 05.06.2013
Вам также может быть интересно:
Другие материалы по этой песне:
  • Аккорды и текст

Страница создана 10.05.2012
http://primanota.ru/depswa/two-angels-and-a-dream-chords.htm
Привет, Гость.
Предлагаем пройти революционный курс по гитаре.
Подарок от PrimaNota.Ru, забирай!