PrimaNota.ru - самый крупный в мире бесплатный архив песенных текстов, аккордов, табулатур и нот


Deprecated - Induced Deception - таба, видео

Регистрация Запомнить меня
Войти через:  Facebook Google Twitter Vk Yandex Mail.ru

Deprecated - Induced Deception - таба, видео

Печатать
Просмотров: 68
--- D E P R E C A T E D ---
                              "Induced Deception"
                     From album: "Deriding His Creation" EP


                            TABULATURE LEGEND:
                   " - tremolo             h - hammer on           
                   ~ - vibrato             \ - slide down
                   p - pull off            / - slide down
                  tr - tremolo picking     ^ - pinch harmonics     
                   = - sustained note      b - bend string         
                p.m. - palm muting         t - tapping

Tuning is C-standart [2 steps down]

[Riff 1 (x2)]                          [Outro 1]
||-----------------------------------||-----------------------------------|
||o---------------------------------o||-----------------------------------|
||-----------------------------------||-----------------------------------|
||-----------------------------------||-----------------------------------|
||o-----3-2---------------3-2-------o||-4444----5555-3-4-4444----5555-3-4-|
||--3-2-----3-4-332-0-3-2-----3-4-2--||-----3333-----1-2-----3333-----1-2-|
    . . . . . . ... . . . . . . . .                  . .              . .

[RIFF 1 (x2)]

[Riff 2 (x2)]
||-----------------------------------|-[ending 1]------------------------||
||o----------------------------------|----------------------------------o||
||-----------------------------------|-----------------------------------||
||-----------------------------------|-----------------------------------||
||o-4444----5555-3-4-----3-2---------|---------4444-----------3-2-------o||
||------3333-----1-2-3-2-----3-4-3-0-|-66663333-----2-1-0-3-2-----3-4-2--||
                 . . . . . . . . . .                . . . . . . . . . .

 -[ending 2]-----------------------|
 ----------------------------------|
 ----------------------------------|
 ----------------------------------|
 ---------4444-----------3-2-------|
 -66663333-----2-1-0-3-2-----3-4---|
               . . . . . . . . .

[Riff 3 (x4)]
||-----------------------|-----------------------||
||o----------------------|----------------------o||
||-----------------------|-----------------------||
||-----3-----------------|-4-----------3---------||
||o-5--3--5--4--3--4--4--|-4--5--4--3--3--4--3--o||
||--5-----3--2--1--2--2--|----3--2--1-----2--1---||
    .     .  .  .  .  .       .  .  .     .  .

[Riff 4 (x2)]
||----------------------------------|-----------------------------||
||o---------------------------------|----------------------------o||
||----------------------------------|-----------------------------||
||--------------------3---2---------|-----------------------------||
||o---------5\--------------3-------|---------5\------3--4--3--5-o||
||--3-2-1-6-----2-3-6---5-----4-3-2-|-3-2-1-6-----2-3-1--2--1--3--||
    . . . .     . . .   .   . . . .   . . . .     . . .  .  .  .

              [Riff 5 (x4)]
 -------------||--------------------------||
 -------------||o------------------------o||
 -------------||--------------------------||
 -------------||--------------------------||
 -4--5--3--4--||o-3--5--4--6--4--5--3--4-o||
 -2--3--1--2--||--1--3--2--4--2--3--1--2--||
  .  .  .  .  |   .  .  .  .  .  .  .  .   |
 -------------||--------------------------||
 -------------||o------------------------o||
 -------------||--------------------------||
 -------------||--------------------------||
 -------------||o-3--5--4--6--4--5--3--4-o||
 -------------||--1--3--2--4--2--3--1--2--||
                  .  .  .  .  .  .  .  .

[Riff 6 (x2)]
||----------------------------------------------------------|-
||o---------------------------------------------------------|-
||----------------------------------------------------------|-
||--3--------4---------------------------3--------4---------|-
||o-1--3--4--2--5--4----4-5--4--2--4--5--1--3--4--2--5--4-4-|-
||-----1--2-----3--2--5---3--2--0--2--3-----1--2-----3--2-2-|-
       .  .     .  .  . . .  .  .  .  .     .  .     .  . .

-----------------------------||
----------------------------o||
-----------------------------||
-----------------------------||
-6h7p6h7-8--7--5h6p5h6-7--6-o||
---------6--5----------5--4--||
         .  .          .  .

[Riff 7]
|-------------------------------------------|-
|-------------------------------------------|-
|-------------------------------------------|-
|-2--------2--------1h2-----2h3-1h2-----1h2-|-
|-2--5--3--2--5--3------1h2---------1h2-----|-
|----3--1-----3--1--------------------------|-
     .  .     .  .

-|--------------------------------------|-
-|--------------------------------------|-
-|--------------------------------------|-
-|-2--------2---------------------------|-
-|-2--5--3--2--5--3----4-5--4--2--4--5--|-
-|----3--1-----3--1--5---3--2--0--2--3--|-
      .  .     .  .  . . .  .  .  .  .

-|-------------------------------------------|-
-|-------------------------------------------|-
-|-------------------------------------------|-
-|-2--------2--------1h2-----2h3-1h2-----1h2-|-
-|-2--5--3--2--5--3------1h2---------1h2-----|-
-|----3--1-----3--1--------------------------|-
      .  .     .  .

-|----------------------------------------------|
-|----------------------------------------------|
-|----------------------------------------------|
-|-2--------2-----------------------------------|
-|-2--5--3--2--5--3--6h7p6h7-8--7--5h6p5h6-7--6-|
-|----3--1-----3--1----------6--5----------5--4-|
      .  .     .  .          .  .          .  .

[Riff 8 (x2)]
||--------------------------------|-------------------------|-
||o-------------------------------|-------------------------|-
||--------------------------------|-------------------------|-
||--------------------------------|-------------------------|-
||o-6h7p6h7-8--7--5h6p5h6-7-6-7-6-|-6h7-5h6-7h8-6h7-5h6-7h8-|-
||----------6--5----------5-4-5-4-|-------------------------|-
|           .  .          . . . . |                         |
||--------------------------------|-------------------------|-
||o-------------------------------|-------------------------|-
||--------------------------------|-------------------------|-
||--------------------------------|-------------------------|-
||o-6h7p6h7-8--7--5h6p5h6-7-6-7-6-|-------------------------|-
||----------6--5----------5-4-5-4-|-6h7-5h6-7h8-6h7-5h6-7h8-|-
            .  .          . . . .

-|-------------------------------|--------------------------||
-|-------------------------------|-------------------------o||
-|-------------------------------|--------------------------||
-|-------------------------------|--------------------------||
-|-6h7p6h7-8--7--5h6p5h6-7-6-7-6-|-3---2---1---3---2---1---o||
-|---------6--5----------5-4-5-4-|---1---3---2---1---3---2--||
 |         .  .          . . . . | . . . . . . . . . . . .   |
-|-------------------------------|--------------------------||
-|-------------------------------|-------------------------o||
-|-------------------------------|--------------------------||
-|-------------------------------|--------------------------||
-|-6h7p6h7-8--7--5h6p5h6-7-6-7-6-|-3---2---1---3---2---1---o||
-|---------6--5----------5-4-5-4-|---1---3---2---1---3---2--||
           .  .          . . . .   . . . . . . . . . . . .

[Riff 9 (x2)]
||--------------------------|--------------------------------||
||o-------------------------|-------------------------------o||
||--------------------------|--------------------------------||
||----------------3---2-----|----------------------5---------||
||o-3---2---1-----------3---|-3---2---1---2--3--4--3--4--3--o||
||----1---3---2-6---5-----2-|---1---3---2-0--1--2-----2--1---||
    . . . . . . .   .   . .   . . . . . . .  .  .     .  .

[Riff 10 (x2)]
||-----------------------------------------|-
||o----------------------------------------|-
||-----------------------------------------|-
||-----------5-----------------------------|-
||o-2--3--4--3--4--3--2--3--4--3---2---1---|-
||--0--1--2-----2--1--0--1--2----1---3---2-|-
    .  .  .     .  .  .  .  .  . . . . . .

-|--------------------------------------||
-|-------------------------------------o||
-|--------------------------------------||
-|----------^---------------------------||
-|-2--3--4--3~-4--3--2--3--3--2--3--3--o||
-|-0--1--2-----2--1--0--1--1--0--1--1---||
   .  .  .     .  .  .  .     .  .

[Riff 11 (x2)]
||--------------------------------------------|-
||o-------------------------------------------|-
||--------------------------------------------|-
||----------------------------------3---2-----|-
||o-2--3--4--3---2---1---2--3--4----------3---|-
||--0--1--2----1---3---2-0--1--2--6---5-----2-|-
    .  .  .  .  .  . . . .  .  .  .   .   . .

-|--------------------------------------||
-|-------------------------------------o||
-|--------------------------------------||
-|----------5---------------------------||
-|-2--3--4--3--4--3--2--3--3--2--3--3--o||
-|-0--1--2-----2--1--0--1--1--0--1--1---||
   .  .  .     .  .  .  .     .  .

          [Riff 12 (x4)]
 ---------||----------------------------------||
 ---------||o--------------------------------o||
 ---------||----------------------------------||
 ---------||----------------------------------||
 ---------||o-4---3---2---4---3---2---444--5-o||
 ---------||----1---3---2---1---3---2----33---||
              . . . . . . . . . . . . ......
                                      triplets
[Riff 13]
|-------------------------------------------|-
|-------------------------------------------|-
|-------------------------------------------|-
|-2--------2--------1h2-----2h3-1h2-----1h2-|-
|-2--5--3--2--5--3------1h2---------1h2-----|-
|----3--1-----3--1--------------------------|-
     .  .     .  .

-|-------------------------------------------------|-
-|-------------------------------------------------|-
-|-------------------------------------------------|-
-|-2--------2--------------------------------------|-
-|-2--5--3--2--5--3--6h7p6h7-8--7--5h6p5h6-7-6-7-6-|-
-|----3--1-----3--1----------6--5----------5-4-5-4-|-
      .  .     .  .          .  .          . . . .

-|-------------------------------------------|-
-|-------------------------------------------|-
-|-------------------------------------------|-
-|-2--------2--------1h2-----2h3-1h2-----1h2-|-
-|-2--5--3--2--5--3------1h2---------1h2-----|-
-|----3--1-----3--1--------------------------|-
      .  .     .  .

-|-------------------------------------------------|
-|-------------------------------------------------|
-|-------------------------------------------------|
-|-2--------2--------------------------------------|
-|-2--5--3--2--5--3--6h7p6h7-8--7--5h6p5h6-7-6-7-6-|
-|----3--1-----3--1----------6--5----------5-4-5-4-|
      .  .     .  .          .  .          . . . .

[RIFF 10 (x2)] [RIFF 11 (x2)]

END OF SONG
Добавлено: 08.09.2013
Другие материалы по этой песне:

Страница создана 25.08.2013
http://primanota.ru/deprecated/induced-deception-chords.htm
Привет, Гость.
Предлагаем пройти революционный курс по гитаре.
Подарок от PrimaNota.Ru, забирай!