PrimaNota.ru - самый крупный в мире бесплатный архив песенных текстов, аккордов, табулатур и нот


Deportivo - Wait A Little While - бас-таба, видео

Регистрация Запомнить меня
Войти через:  Facebook Google Twitter Vk Yandex Mail.ru

Deportivo - Wait A Little While - бас-таба, видео

Печатать
Просмотров: 88
---------------------------------------------------------------------------------------------------------------
                                     Déportivo - Wait A Little While
---------------------------------------------------------------------------------------------------------------

Album : Parmi Eux (2004)
Tempo : 90
E-mail: gwendal.mollo@orange.fr
Tabbed by: newg

Intro :

G |-------|-------|-------|-------|
D |-------|-------|-------|-------|
A |-------|-------|-------|-------|
E |-------|-------|-------|-------|

Couplets / solo : 

----------------------------|
--------------2-------------|
--4-----2-----------2-------|
-----0-----0-----0-----0----| x4

Refrain : 

----------------------------------------------------|
----------------------------------------------------|
--4-----4--4--2-----2--2----------------------------|
--------------------------0-----0--0--2-----2--2----| x2



Outro : 

----------------------------|
--------------2-------------|
--4-----2-----------2-------|
-----0-----0-----0-----0----| x4


----------------------------|
----------------------------|
--4--4--4--4--4--4--4--4----|
----------------------------|

|-------|
|-------|
|--4----|
|-------|

Добавлено: 14.06.2015
Другие материалы по этой песне:

Страница создана 26.06.2012
http://primanota.ru/deportivo/wait-a-little-while-chords.htm
Привет, Гость.
Предлагаем пройти революционный курс по гитаре.
Подарок от PrimaNota.Ru, забирай!