PrimaNota.ru - самый крупный в мире бесплатный архив песенных текстов, аккордов, табулатур и нот


Deportivo - Suicide Sunday - таба, бас-таба, видео

Регистрация Запомнить меня
Войти через:  Facebook Google Twitter Vk Yandex Mail.ru

Deportivo - Suicide Sunday - таба, бас-таба, видео

Печатать
Просмотров: 216
-------------------------------------------------------------------------------
                          Suicide Sunday - Deportivo
-------------------------------------------------------------------------------

Tabbed By : superfranki

Tuning: Standard

Intro:
e|-------------|
B|-15-15-15-15-| x9
G|-------------|
D|-------------|
A|-------------|
E|-------------|

e|----------------------------------|
B|-15~----13-13-13--15--------------|
G|----------------------15--14--12~-|
D|----------------------------------|
A|----------------------------------|
E|----------------------------------|

Riff 1:
e|-------13-13-------13-13-------15-15-------15-15-|
B|-15-15-------15-15-------15-15-------15-15-------|
G|-------------------------------------------------|
D|-------------------------------------------------|
A|-------------------------------------------------|
E|-------------------------------------------------|

e|-------13-13-------13-13-------12-12-------12-12-|
B|-15-15-------15-15-------15-15-------15-15-------|
G|-------------------------------------------------|
D|-------------------------------------------------|
A|-------------------------------------------------|
E|-------------------------------------------------|

Riff 2:
e|----------------------------------|
B|-15~----13-13-13--15--------------|
G|----------------------15--14--12~-|
D|----------------------------------|
A|----------------------------------|
E|----------------------------------|

e|----------------------------------------------|
B|-15~----13-13-13--15--------------------------|
G|----------------------15--14--12---15--14--12-|
D|----------------------------------------------|
A|----------------------------------------------|
E|----------------------------------------------|

Riff 3:
e|-13~----13-|-17--17--13--13-|-15~----13-|-13~----12-|-12~----12-|
B|-----------|----------------|-----------|-----------|-----------|
G|-----------|----------------|-----------|-----------|-----------|
D|-----------|----------------|-----------|-----------|-----------|
A|-----------|----------------|-----------|-----------|-----------|
E|-----------|----------------|-----------|-----------|-----------|

e|-13---13-12---12-|---------|
B|-----------------|-12~-----|
G|-----------------|---------|
D|-----------------|---------|
A|-----------------|---------|
E|-----------------|---------|

Riff 4:
e|----------15-15-13-|-13-15-15~-----15-15~----|----13-12~----12---|
B|-------------------|-------------------------|-------------------|
G|-------------------|-------------------------|-------------------|
D|-------------------|-------------------------|-------------------|
A|-------------------|-------------------------|-------------------|
E|-------------------|-------------------------|-------------------|

Ending:
e|-------------------------|
B|-15-15-15-15-15-15-15-15-| x4
G|-------------------------|
D|-------------------------|
A|-------------------------|
E|-------------------------|

e|----------------------------------|
B|-15~----13-13-13--15--------------|
G|----------------------15--14--12~-|
D|----------------------------------|
A|----------------------------------|
E|----------------------------------|

e|------------------------------------------------|
B|-15~----13-13-13--15----------------------------|
G|----------------------15--14--12---10---12---14-|
D|------------------------------------------------|
A|------------------------------------------------|
E|------------------------------------------------|


Intro
Riff 1 x4
Riff 2
Riff 1 x4
Riff 3
Riff 1 x2
Riff 2
Riff 1 x2
Riff 4
Ending


************************************

| /   slide up
| \   slide down
| h   hammer-on
| p   pull-off
| ~   vibrato
| +   harmonic
| x   Mute note
| b   Bend
| pb  Pre-bend
| br  Bend release
| pbr Pre-bend release
| brb Bend release bend

************************************
Добавлено: 18.04.2012
Другие материалы по этой песне:
  • Аккорды и текст

Страница создана 18.04.2012
http://primanota.ru/deportivo/suicide-sunday-chords.htm
Привет, Гость.
Предлагаем пройти революционный курс по гитаре.
Подарок от PrimaNota.Ru, забирай!