PrimaNota.ru - самый крупный в мире бесплатный архив песенных текстов, аккордов, табулатур и нот


Deportivo - Roma - бас-таба, видео

Регистрация Запомнить меня
Войти через:  Facebook Google Twitter Vk Yandex Mail.ru

Deportivo - Roma - бас-таба, видео

Печатать
Просмотров: 87
---------------------------------------------------------------------------------------------------------------
                                     Déportivo - Roma
---------------------------------------------------------------------------------------------------------------

Album : Parmi Eux (2004)
Tempo : 95
E-mail: gwendal.mollo@orange.fr
Tabbed by: newg



Intro :
G |-------|-------|
D |-------|-------|
A |-------|-------|
E |-------|-------|


|----------------------------------------------------|
|----------------------------------------------------|
|----------------------------------------------------|
|--0-----------0-----------2-----------2-------------| x4


Couplet 1

----------------------------------------------------|
----------------------------------------------------|
--------------2--------0--2-----0-----2-------------|
--0-----------------------------------------0-------| x8


Variation :

----------------------------------------------------|
----------------------------------------------------|
--------------2--------0--------------0-------------|
--0-----------------------------3-----------0-------|


Refrain : 


----------------------------|----------------------------|
----------------------------|----------------------------|
----------------------------|--7--7--7--7--5--5--5--5----|
--3--3--3--3--7--7--7--7----|----------------------------| x2


----------------------------|
----------------------------|
----------------------------|
--3--3--3--3--7--7--7--7----|


Refrain 2 :

----------------|----------------------------|
----------------|----------------------------|
--3--3--3--3----|----------------------------|
----------------|--3--3--3--3--3--3--3--3----| x4




----------------------------|----------------------------|
----------------------------|----------------------------|
--------------7--7--7--7----|--3--3--3--3----------------|
--5--5--5--5----------------|--------------3--3--3--3----|


----------------------------|----------------------------|
----------------------------|----------------------------|
--------------7--7--7--7----|--3--3--3--3--2--2--2--2----|
--5--5--5--5----------------|----------------------------|



Outro :

----------------------------------------------------|
----------------------------------------------------|
--------------2-----------------2-----2-------------|
--0-----------------------0-----------------2-------|


----------------------------------------------------|-------|
----------------------------------------------------|-------|
--------------2-----------------2-----2-------------|-------|
--0-----------------------0-----------------2-------|--0----|

Добавлено: 14.06.2015
Другие материалы по этой песне:

Страница создана 29.02.2012
http://primanota.ru/deportivo/roma-chords.htm
Привет, Гость.
Предлагаем пройти революционный курс по гитаре.
Подарок от PrimaNota.Ru, забирай!