PrimaNota.ru - самый крупный в мире бесплатный архив песенных текстов, аккордов, табулатур и нот


Deportivo - Queen Of The Universe - бас-таба, видео

Регистрация Запомнить меня
Войти через:  Facebook Google Twitter Vk Yandex Mail.ru

Deportivo - Queen Of The Universe - бас-таба, видео

Печатать
Просмотров: 83
Уроки эстрадного вокала в Санкт-Петербурге
---------------------------------------------------------------------------------------------------------------
                                     Déportivo - Queen Of The Universe
---------------------------------------------------------------------------------------------------------------

Album : Parmi Eux (2004)
Tempo : 103
E-mail: gwendal.mollo@orange.fr
Tabbed by: newg


intro :
G |-------|-------|
D |-------|-------|
A |-------|-------|
E |-------|-------|

Riff Couplet / refrain :
----------------------------------------------------|
----------------------------------------------------|
--5-----0g------------------------------------------|
--------------1-----0g----3-----0g----5-----5--5----|


Solo :

----------------------------------------------------|
-----------------------3-----5-----5--5--7-----7----|
--------3-----5-------------------------------------|
--5-------------------------------------------------|


----------------------------------------------------|
----------------------------------------------------|
--------3-----5-------------------------------------|
--5-----------------------3-----3--3--5-----5--5----| x2


Outro :

----------------------------||
----------------------------||
--5-----5--5----------------||
----------------------------||

Добавлено: 14.06.2015
Другие материалы по этой песне:

Страница создана 01.05.2012
http://primanota.ru/deportivo/queen-of-the-universe-chords.htm
Привет, Гость.
Предлагаем пройти революционный курс по гитаре.
Подарок от PrimaNota.Ru, забирай!