PrimaNota.ru - самый крупный в мире бесплатный архив песенных текстов, аккордов, табулатур и нот


Deportivo - Paratonnerre - бас-таба, видео

Регистрация Запомнить меня
Войти через:  Facebook Google Twitter Vk Yandex Mail.ru

Deportivo - Paratonnerre - бас-таба, видео

Печатать
Просмотров: 88
---------------------------------------------------------------------------------------------------------------
                                     Déportivo - Paratonnerre
---------------------------------------------------------------------------------------------------------------

Album : Parmi Eux (2004)
Tempo : 93
E-mail: gwendal.mollo@orange.fr
Tabbed by: newg


Intro :
G |-------|-------|-------|
D |-------|-------|-------|
A |-------|-------|-------|
E |-------|-------|-------|

|----------------------------|
|----------------------------|
|----------------------------|
|--8s----3--4--8s----3--4----| x4


Couplet :

----------------------------|
----------------------------|
--3-----------3-------------|
--------3-----------3--4----| x4


Refrain :

|----------------------------|
|----------------------------|
|--3-----------3-------------|
|--------3--4--------3--4----| x2


----------------------------|
----------------------------|
----------------------------|
--8s----3--4--8s----3--4----| x4


Break :


|----------------------------|
|----------------------------|
|--3--------1--3--------1----|
|-----3--4--------3--4-------| x2


----------------------------------------------------|
----------------------------------------------------|
--3-----------3-----5--3--1-----1--1-----1--1--1----|
----------------------------------------------------|


----------------------------------------------------|
----------------------------------------------------|
--6-----------8--6--3--6----------------------------|
--------------------------3-----3--3-----3--3--3----| x2



Couplet 3 :
----------------------------------------------------|
----------------------------------------------------|
--3-----------3-----5--3--1-----1--1-----1--1--1----|
----------------------------------------------------|


----------------------------------------------------|
----------------------------------------------------|
--6-----------8--6--3--6----------------------------|
--------------------------3-----3--3-----3--3--3----| x2

Outro :

----------------------------|
----------------------------|
--3-----------3-------------|
--------3-----------3--4----| x2



----------------------------|----------------------------|-------|-------|
----------------------------|----------------------------|-------|-------|
----------------------------|----------------------------|-------|-------|
--8s----3--4--8s----3--4----|--8s----3--4--8s----3--4----|--3L---|--3----|

Добавлено: 14.06.2015
Другие материалы по этой песне:

Страница создана 28.06.2012
http://primanota.ru/deportivo/paratonnerre-chords.htm
Привет, Гость.
Предлагаем пройти революционный курс по гитаре.
Подарок от PrimaNota.Ru, забирай!