PrimaNota.ru - самый крупный в мире бесплатный архив песенных текстов, аккордов, табулатур и нот


Deportivo - Ne Le Dis A Personne Et Personne Ne Le Saura - бас-таба, видео

Регистрация Запомнить меня
Войти через:  Facebook Google Twitter Vk Yandex Mail.ru

Deportivo - Ne Le Dis A Personne Et Personne Ne Le Saura - бас-таба, видео

Печатать
Просмотров: 115
Уроки эстрадного вокала в Санкт-Петербурге
---------------------------------------------------------------------------------------------------------------
                              Déportivo - Ne le dis à personne et personne ne le saura
---------------------------------------------------------------------------------------------------------------

Album : Déportivo (2007)
Tempo : 84
E-mail: gwendal.mollo@orange.fr
Tabbed by: newg


Intro :

G |----------------------------|----------------------------|
D |----------------------------|----------------------------|
A |-----5-----5-----5-----5----|-----7-----7-----7-----7----|
E |--5-----5-----5-----5-------|--8-----8-----8-----8-------|


Couplets :

G |-------------------------------------------|----------------------------|
D |-------------------------------------------|----------------------------|
A |-----------8----5-8--------------8----5-8--|-----7--5.-5.----7--5.-5.---|
E |--5.--5.----------------5.--5.-------------|--8-----------8-------------|



Refrains :

G |----------------------------------------------------|----------------------------|
D |----------------------------------------------------|----------------------------|
A |--------------------------8--8--7--7--5--5----------|-----7--5.-5.----7--5.-5.---|
E |--5-----5-----8-----5-----------------------8--8----|--8-----------8-------------|


Couplet 2 Variation :

G |----------------------------------------------------|----------------------------|
D |-----------------------7-----------------------7----|----------------------------|
A |--------------8-----5-----------------8-----5-------|-----7--5.-5.----7--5.-5.---|
E |--5-----8-----------------5-----8-------------------|--8-----------8-------------|


Pont / Couplet 3 :

G |----------------------------|----------------------------|
D |----------------------------|----------------------------|
A |--5--5--5--5--5--5--5--5----|--7--7--7--7--7--7--7--7----|
E |----------------------------|----------------------------|



G |----------------------------|----------------------------|
D |----------------------------|----------------------------|
A |-----------7-----7--7--5----|-----------7-----7--7--5----|
E |--5--5--5-------------------|--8--8--8-------------------|


 
Outro :

G |-------------------------------------------|----------------------------|
D |-------------------------------------------|----------------------------|
A |-----------8----5-8--------------8----5-8--|-----7--5.-5.----7--5.-5.---|
E |--5.--5.----------------5.--5.-------------|--8-----------8-------------|

Добавлено: 14.06.2015
Другие материалы по этой песне:

Страница создана 24.03.2012
http://primanota.ru/deportivo/ne-le-dis-a-personne-et-personne-ne-le-saura-chords.htm
Привет, Гость.
Предлагаем пройти революционный курс по гитаре.
Подарок от PrimaNota.Ru, забирай!