PrimaNota.ru - самый крупный в мире бесплатный архив песенных текстов, аккордов, табулатур и нот


Deportivo - Memoire - бас-таба, видео

Регистрация Запомнить меня
Войти через:  Facebook Google Twitter Vk Yandex Mail.ru

Deportivo - Memoire - бас-таба, видео

Печатать
Просмотров: 90
---------------------------------------------------------------------------------------------------------------
                                     Déportivo - Mémoire
---------------------------------------------------------------------------------------------------------------

Album : Parmi Eux (2004)
Tempo : 180
E-mail: gwendal.mollo@orange.fr
Tabbed by: newg


intro : 
G |-------|-------|-------|
D |-------|-------|-------|
A |-------|-------|-------|
E |-------|-------|-------|

Riff / Refrain :
|----------------------------|
|--4-----4-------------------|
|-----------2--4--2--6-------|
|----------------------------|

----------------------------|----------------------------|
--------------4-----4-------|----------------------------|
--6--1--2--1-----------2----|--4--2--6-----6--1--2--1----|
----------------------------|----------------------------| x2


Couplet 1 / Outro:
|----------|
|--4-------|
|-----4----|
|----------| x4

refrain : 

----------------|
----------------|
--6--1--2--1----|
----------------| x4

Couplet 2 :
-----6----------|
--4--------6----|
--------4-------|
----------------| x4




Pont :
|----------------|----------------|----------------|----------------|
|----------------|----------------|----------------|----------------|
|--2--2--2--2----|--2--2--2--2----|--1--1--1--1----|--1--1--1--1----|
|----------------|----------------|----------------|----------------|



Pont 2 :

|----------------|----------------|----------------|
|--4--4--4--4----|--4--4--4--4----|--3--3--3--3----|
|----------------|----------------|----------------|
|----------------|----------------|----------------|


----------------|-------|-------|
--3--3--3--3----|--1L---|--1----|
----------------|-------|-------|
----------------|-------|-------|
Добавлено: 14.06.2015
Другие материалы по этой песне:
  • Аккорды и текст

Страница создана 14.06.2015
http://primanota.ru/deportivo/memoire-chords.htm
Привет, Гость.
Предлагаем пройти революционный курс по гитаре.
Подарок от PrimaNota.Ru, забирай!