PrimaNota.ru - самый крупный в мире бесплатный архив песенных текстов, аккордов, табулатур и нот


Deportivo - Ivres Et Debutants - бас-таба, видео

Регистрация Запомнить меня
Войти через:  Facebook Google Twitter Vk Yandex Mail.ru

Deportivo - Ivres Et Debutants - бас-таба, видео

Печатать
Просмотров: 148
-------------------------------------------------------------------------------
                       Ivres et Debutants - Deportivo
-------------------------------------------------------------------------------

Tabbed By : superfranki

Tuning: Standard

Intro:
| + . . . + . . . + . . . + . . . |
|---------------------------------| x2
|---------------------------------|
|---------------------------------|
|-8\------------------------------|

| + . . . + . . . + . . . + . . . | + . . . + . . . + . . . + . . . |
|---------------------8-----------|-------------------8-------------|
|-----5-------8-----6-------5-----|-----5-----8-----6-----------5---|
|-3---------6-----------0-3-------|---3---0-6-----------0-3---------|
|---------------------------------|---------------------------------|

| + . . . + . . . + . . . + . . . | + . . . + . . . + . . . + . . . |
|-------------------8-------------|---------------------------------|
|-----5-----8-----6---------------|-----5-------------5-------------|
|-3-------6-----------0-6---6-8-6-|-3---------6---6-----6\--3-------|
|---------------------------------|---------------------------------|

Verse 1:
| + . . . + . . . + . . . + . . . | + . . . + . . . + . . . + . . . |
|---------------------8-----------|-------------------8-------------|
|-----5-------8-----6-------5-----|-----5-----8-----6-----------5---|
|-3---------6-----------0-3-------|---3---0-6-----------0-3---3-----|
|---------------------------------|---------------------------------|

| + . . . + . . . + . . . + . . . | + . . . + . . . + . . . + . . . |
|-------------------8-------------|---------------------------------|
|-----5\----8-----6---------------|-----5-------------5-------------|
|-3-------6-----------0-6---6-8\--|-3---------6---6-----6\--3-------|
|---------------------------------|---------------------------------|

| + . . . + . . . + . . . + . . . | + . . . + . . . + . . . + . . . |
|---------------------8-----------|---------------------------------|
|-----5-------8-----6-------5-----|-----5-------------5-------------|
|-3---------6-----------0-3-------|-3---------6---6-----6\--3-------|
|---------------------------------|---------------------------------|

| + . . . + . . . + . . . + . . . | + . . . + . . . + . . . + . . . |
|---------------------8-----------|-------------------8-------------|
|-----5-------8-----6-------5-----|-----5-----8-----6-----------5---|
|-3---------6-----------0-3-------|---3---0-6-----------0-3---------|
|---------------------------------|---------------------------------|

| + . . . + . . . + . . . + . . . | + . . . + . . . + . . . + . . . |
|-------------------8-------------|---------------------------------|
|-----5\----8-----6---------------|-----5-------------5-------------|
|-3-------6-----------0-6---6-8-6-|-3---------6---6-----6\--3-------|
|---------------------------------|---------------------------------|

| + . . . + . . . + . . . + . . . | + . . . + . . . + . . . + . . . |
|---------------------8\----------|---------------------8\----------|
|-------------8---6---------5-----|-----5\------8-0-6---------------|
|-3-------6---------------3---3-5-|-3-------6---------------3-5-3---|
|---------------------------------|---------------------------------|

| + . . . + . . . + . . . + . . . | + . . . + . . . + . . . + . . . |
|---------------------8-----------|---------------------------------|
|-----5\------8\--6---------------|-----5-------------5-------------|
|-3-------6---------------6-8-6-8-|-3---------6---6-----6\--3-------|
|---------------------------------|---------------------------------|

Chorus 1:
| + . . . + . .  . + . . . +  .  . . | + . . . + . . .  + . . . + . . . |
|------------------------------------|----------------------------------|
|-6---6---6-8-10-8-10--10--10----8---|----------------------------------|
|-----------------------------10-----|-8---8---8-6-8-10-6---6---6---6---|
|------------------------------------|----------------------------------|

| + . . . + . . . + . . . + . .  . | + . . . + . . . + . . . + . . . |
|----------------------------------|---------------------------------|
|-6---6---6---8\-------------------|---------------------------------|
|-----------------8---8---8---10\--|-6---6---6---6-8-3---3---3---3---|
|----------------------------------|-----------8---------------------|

Verse 2:
| + . . . + . . . + . . . + . . . | + . . . + . . . + . . . + . . . |
|---------------------8-----------|-------------------8-------------|
|-----5-------8-----6-------5-----|-----5-----8-----6-----------5---|
|-3---------6-----------0-3-------|---3---0-6-----------0-3---------|
|---------------------------------|---------------------------------|

| + . . . + . . . + . . . + . . . | + . . . + . . . + . . . + . . . |
|---------------------8-----------|-------------------8-------------|
|-----5-------8-----6-------5-----|-----5-----8-----6-----------5---|
|-3---------6-----------0-3-------|---3---0-6-----------0-3---3-----|
|---------------------------------|---------------------------------|

| + . . . + . . . + . . . + . . . | + . . . + . . . + . . . + . . . |
|-------------------8-------------|---------------------------------|
|-----5\----8-----6---------------|-----5-------------5-------------|
|-3-------6-----------0-6---6-8\--|-3---------6---6-----6\--3-------|
|---------------------------------|---------------------------------|

| + . . . + . . . + . . . + . . . | + . . . + . . . + . . . + . . . |
|---------------------8\----------|---------------------8\----------|
|-------------8---6---------5-----|-----5\------8-0-6---------------|
|-3-------6---------------3---3-5-|-3-------6---------------3-5-3---|
|---------------------------------|---------------------------------|

| + . . . + . . . + . . . + . . . | + . . . + . . . + . . . + . . . |
|---------------------8-----------|---------------------------------|
|-----5\------8\--6---------------|-----5-------------5-------------|
|-3-------6---------------6-8-6-8-|-3---------6---6-----6\--3-------|
|---------------------------------|---------------------------------|

Chorus 2:
| + . . . + . .  . + . . . +  .  . . | + . . . + . . .  + . . . + . . . |
|------------------------------------|----------------------------------|
|-6---6---6-8-10-8-10--10--10----8---|----------------------------------|
|-----------------------------10-----|-8---8---8---8-10-6---6---6---6---|
|------------------------------------|----------------------------------|

| + . . . + . . . + . . . + . .  . | + . . . + . . . + . . . + . . . |
|----------------------------------|---------------------------------|
|-6---6---6---8\-------------------|---------------------------------|
|-----------------8---8---8---10\--|-6---6---6---6-8-3---3---3---3---|
|----------------------------------|-----------8---------------------|

| + . . . + . .  . + . . . +  .  . . | + . . . + . . .  + . . . + . . . |
|------------------------------------|----------------------------------|
|-6---6---6-8-10-8-10--10--10----8---|----------------------------8-8-8-|
|-----------------------------10-----|-8---8---8---8-10-6---6---6-------|
|------------------------------------|----------------------------------|

| + . . . + . . . + . . . + . .  . | + . . . + . . . + . . . + . . .  |
|----------------------------------|----------------------------------|
|-6---6---6---8\-------------------|----------------------------------|
|-----------------8---8---8---10\--|-6---6---6---6-8-3-3-3-3-3-3-3-8\-|
|----------------------------------|-----------8----------------------|

Ending:
| + . . . + . . . + . . . + . . . | + . . . + . . . + . . . + . . . |
|---------------------8-----------|---------------------------------|
|-----5-------8-----6-------5-----|-------------------5-------------|
|-3---------6-----------0-3-------|-3---------6---6-----6\--3-------|
|---------------------------------|---------------------------------|

| + . . . + . . . + . . . + . . . | + . . . + . . . + . . . + . . . |
|---------------------8-----------|-------------------8-------------|
|-----5-------8-----6-------5-----|-----5-----8-----6-----------5---|
|-3---------6-----------0-3-------|---3---0-6-----------0-3---3-----|
|---------------------------------|---------------------------------|

| + . . . + . . . + . . . + . . . | + . . . + . . . + . . . + . . . |
|-------------------8-------------|---------------------------------|
|-----5\----8-----6---------------|-----5-------------5-------------|
|-3-------6-----------0-6---6-8\--|-3---------6---6-----6\--3-------|
|---------------------------------|---------------------------------|

| /  slide up 
| \  slide down
| h  hammer-on
| p  pull-off
| ~  vibrato
| +  harmonic
| x  Mute note
===============================================================================
Добавлено: 13.05.2012
Другие материалы по этой песне:
  • Аккорды и текст

Страница создана 13.05.2012
http://primanota.ru/deportivo/ivres-et-debutants-chords.htm
Привет, Гость.
Предлагаем пройти революционный курс по гитаре.
Подарок от PrimaNota.Ru, забирай!