PrimaNota.ru - самый крупный в мире бесплатный архив песенных текстов, аккордов, табулатур и нот


Deportivo - Intrepide - таба, бас-таба, видео

Регистрация Запомнить меня
Войти через:  Facebook Google Twitter Vk Yandex Mail.ru

Deportivo - Intrepide - таба, бас-таба, видео

Печатать
Просмотров: 121
-------------------------------------------------------------------------------
                           Intrepide - Deportivo
-------------------------------------------------------------------------------

Tabbed By : superfranki

Tuning: Standard

Rhythm guitar (repeated through song):
e|-----------------------------------------|
B|-----------------------------------------|
G|-----------------------------------------|
D|----5----5----5----5----7----7----7----7-|
A|-7----7----7----7---/9----9----9----9----|
E|-----------------------------------------|

e|------------------------------------------|
B|------------------------------------------|
G|------------------------------------------|
D|-----9----9----9----9----9----9----9----9-|
A|-/10---10---10---10---10---10---10---10---|
E|------------------------------------------|

e|-------------------------------------------|
B|-------------------------------------------|
G|-------------------------------------------|
D|-----10---10---10---10----9----9----9----9-|
A|-/12---12---12---12---10---10---10---10----|
E|-------------------------------------------|

e|-----------------------------------------|
B|-----------------------------------------|
G|-----------------------------------------|
D|----7----7----7----7----7----7----7----7-|
A|-9----9----9----9----9----9----9----9----|
E|-----------------------------------------|


Lead guitar 1 (0:19)
e|-0-|-2p0-0-3p0-0-5p0-0-7p0-0-8p0-0-7p0-0-5p0-0-3p0-0-|
B|---|-------------------------------------------------|
G|---|-------------------------------------------------|
D|---|-------------------------------------------------|
A|---|-------------------------------------------------|
E|---|-------------------------------------------------|

Lead guitar 2 (0:27)
e|-12p0-0-10p0-0-8p0-0-7p0-0-12p0-0-10p0-0-8p0-0-7p0-0-|
B|-----------------------------------------------------|
G|-----------------------------------------------------|
D|-----------------------------------------------------|
A|-----------------------------------------------------|
E|-----------------------------------------------------|

e|-8p0-0-10p0-0-12p0-0-10p0-0-8p0-0-7p0-0-5p0-0-3p0-0-|-2~-|
B|----------------------------------------------------|----|
G|----------------------------------------------------|----|
D|----------------------------------------------------|----|
A|----------------------------------------------------|----|
E|----------------------------------------------------|----|


Variation (1:49-2:01 & 2:14-2:27)
e|-22223333555577778888777755553333-|
B|----------------------------------|
G|----------------------------------| x2
D|----------------------------------|
A|----------------------------------|
E|----------------------------------|

e|-222233335555-7b8-2p0-0-3p0-0-5p0-5b6-2p0-0-3b-2p0-0-3b-2p0-0-3p0-0-5p0-0-5b6-|
B|------------------------------------------------------------------------------|
G|------------------------------------------------------------------------------|
D|------------------------------------------------------------------------------|
A|------------------------------------------------------------------------------|
E|------------------------------------------------------------------------------|


************************************

| /   slide up
| \   slide down
| h   hammer-on
| p   pull-off
| ~   vibrato
| +   harmonic
| x   Mute note
| b   Bend
| pb  Pre-bend
| br  Bend release
| pbr Pre-bend release
| brb Bend release bend

************************************
Добавлено: 23.07.2013
Другие материалы по этой песне:
  • Аккорды и текст

Страница создана 23.07.2013
http://primanota.ru/deportivo/intrepide-chords.htm
Привет, Гость.
Предлагаем пройти революционный курс по гитаре.
Подарок от PrimaNota.Ru, забирай!