PrimaNota.ru - самый крупный в мире бесплатный архив песенных текстов, аккордов, табулатур и нот


Deportivo - Fais-moi Comprendre - бас-таба, видео

Регистрация Запомнить меня
Войти через:  Facebook Google Twitter Vk Yandex Mail.ru

Deportivo - Fais-moi Comprendre - бас-таба, видео

Печатать
Просмотров: 122
-------------------------------------------------------------------------------
                       Fais-Moi Comprendre - Deportivo
-------------------------------------------------------------------------------

Tabbed By : superfranki

Tuning: Standard

Intro:
  | + . . . + . . . + . . . + . . . | + . . . + . . . + . . . + . . . |
G |-----------------------------6---|-----------------6-----------6---|
D |-----------------4---6---8-------|-----8---------------8---8-------|
A |-6-------5---6-------------------|---------------------------------|
E |---------------------------------|---------------------------------|

  | + . . . + . . . + . . . + . . . | + . . . + . . . + . . . + . . . |
G |-----------------------------6---|-----------------6-------6-------|
D |-----------------4---6---8-------|-----8---------------8-------8---|
A |-6-------5---6-------------------|---------------------------------|
E |---------------------------------|---------------------------------|

  | + . . . + . . . + . . . + . . . | + . . . + . . . + . . . + . . . |
G |-----------------------------8---|-----8-------8---11--11----------| x2
D |-----------------8---9---11------|-------------------------11------|
A |-9-------8---9-------------------|---------------------------------|
E |---------------------------------|---------------------------------|

Verse:
  | + . . . + . . . + . . . + . . . | + . . . + . . . + . . . + . . . |
G |---------------------------------|---------------------------------|
D |-6-------------------------------|-----------------6-/-8-\---------|
A |---------------------------------|---------------------------------|
E |---------------------------------|---------------------------------|

  | + . . . + . . . + . . . + . . . | + . . . + . . . + . . . + . . . |
G |---------------------------------|---------------------------------|
D |---------------------------------|-------------------------6-------|
A |-4-------------------------------|---------------------------------|
E |---------------------------------|---------------------------------|

  | + . . . + . . . + . . . + . . . | + . . . + . . . + . . . + . . . |
G |---------------------------------|-----6---6-------4-------3-------| x2
D |-4-------------------------------|---------------------------------|
A |---------------------------------|---------------------------------|
E |---------------------------------|---------------------------------|

  | + . . . + . . . + . . . + . . . | + . . . + . . . + . . . + . . . |
G |---------------------------------|---------------------------------|
D |-6-------------------------------|-----------------6-/-8-\---------|
A |---------------------------------|---------------------------------|
E |---------------------------------|---------------------------------|

  | + . . . + . . . + . . . + . . . | + . . . + . . . + . . . + . . . |
G |---------------------------------|---------------------6-----------|
D |---------------------------------|-----------------6-------6-------|
A |-4-------------------------------|---------------------------------|
E |---------------------------------|---------------------------------|

  | + . . . + . . . + . . . + . . . | + . . . + . . . + . . . + . . . |
G |---------------------------------|-----6---6-------4-------3-------| x2
D |-4-------------------------------|---------------------------------|
A |---------------------------------|---------------------------------|
E |---------------------------------|---------------------------------|

  | + . . . + . . . + . . . + . . . | + . . . + . . . + . . . + . . . |   ||
G |---------------------------------|---------------------------------|   ||
D |-6-------6-------6---6-------6---|-----6-------6---8---6-----------|   ||
A |---------------------------------|-------------------------8---6---|   ||
E |---------------------------------|---------------------------------|   ||
                                                                          ||
  | + . . . + . . . + . . . + . . . | + . . . + . . . + . . . + . . . |   ||
G |---------------------------------|--------------------------4-h6---|   || x3
D |---------------------------------|-----------------6---------------|   ||
A |-4-------4-------4---4-------4---|-----4-------4-------------------|   ||
E |---------------------------------|---------------------------------|   ||
                                                                          ||
  | + . . . + . . . + . . . + . . . | + . . . + . . . + . . . + . . . |   ||
G |---------------------------------|-----6---6-------4-------3-------|x2 ||
D |-4-------4-------4---4-------4---|---------------------------------|   ||
A |---------------------------------|---------------------------------|   ||
E |---------------------------------|---------------------------------|   ||

Chorus
  | + . . . + . . . + . . . + . . . | + . . . + . . . + . . . + . . . |
G |---------------------------------|---------------------------------|
D |-6---6-------6---6---6-------6---|-6---6-------6---6---6---8---8\--|
A |---------------------------------|---------------------------------|
E |---------------------------------|---------------------------------|

  | + . . . + . . . + . . . + . . . | + . . . + . . . + . . . + . . . |
G |---------------------------------|---------------------------------|
D |---------------------------------|-------------------------6---6---|
A |-4---4-------4---4---4-------4---|-4---4-------4---4---4-----------|
E |---------------------------------|---------------------------------|

  | + . . . + . . . + . . . + . . . | + . . . + . . . + . . . + . . . |
G |---------------------------------|---------------------------------|
D |-4---4-------4---4---4-------4---|-4---4-------4---4---6---6---6---|
A |---------------------------------|---------------------------------|
E |---------------------------------|---------------------------------|

  | + . . . + . . . + . . . + . . . | + . . . + . . . + . . . + . . . |
G |---------------------------------|---------------------------------|
D |---------------------------------|---------------------------------|
A |-2---2-------2---2---2-------2---|-2---2-------2---2---2---4---4---|
E |---------------------------------|---------------------------------|

  | + . . . + . . . + . . . + . . . | + . . . + . . . + . . . + . . . |
G |---------------------------------|---------------------------------|
D |-6-------6-------6-------6---6---|-----6-------6---8---6-----------|
A |---------------------------------|-------------------------8---6---|
E |---------------------------------|---------------------------------|
                                                                     
  | + . . . + . . . + . . . + . . . | + . . . + . . . + . . . + . . . |
G |---------------------------------|---------------------------------|
D |---------------------------------|---------------------6---6\------|
A |-4-------4-------4---4-------4---|-----4-------4---4---------------|
E |---------------------------------|---------------------------------|

Bridge (idem intro)
Verse (play last part only once)

Chorus 2:

  | + . . . + . . . + . . . + . . . | + . . . + . . . + . . . + . . . |  ||
G |---------------------------------|---------------------------------|  ||
D |-6---6-------6---6---6-------6---|-6---6-------6---6---6---8---8\--|  ||
A |---------------------------------|---------------------------------|  ||
E |---------------------------------|---------------------------------|  ||
                                                                         ||
  | + . . . + . . . + . . . + . . . | + . . . + . . . + . . . + . . . |  ||
G |---------------------------------|---------------------------------|  || x2
D |---------------------------------|-------------------------6---6---|  ||
A |-4---4-------4---4---4-------4---|-4---4-------4---4---4-----------|  ||
E |---------------------------------|---------------------------------|  ||
                                                                         ||
  | + . . . + . . . + . . . + . . . | + . . . + . . . + . . . + . . . |  ||
G |---------------------------------|---------------------------------|  ||
D |-4---4-------4---4---4-------4---|-4---4-------4---4---6---6---6---|  ||
A |---------------------------------|---------------------------------|  ||
E |---------------------------------|---------------------------------|  ||
                                                                         ||
  | + . . . + . . . + . . . + . . . | + . . . + . . . + . . . + . . . |  ||
G |---------------------------------|---------------------------------|  ||
D |---------------------------------|---------------------------------|  ||
A |-2---2-------2---2---2-------2---|-2---2-------2---2---2---4---4---|  ||
E |---------------------------------|---------------------------------|  ||
                                                                     
  | + . . . + . . . + . . . + . . . | + . . . + . . . + . . . + . . . |
G |---------------------------------|---------------------------------|
D |-6-------6-------6-------6---6---|-----6-------6---8---6-----------|
A |---------------------------------|-------------------------8---6---|
E |---------------------------------|---------------------------------|

  | + . . . + . . . + . . . + . . . | + . . . + . . . + . . . + . . . |
G |---------------------------------|---------------------------------|
D |---------------------------------|---------------------6---6\------|
A |-4-------4-------4---4-------4---|-----4-------4---4---------------|
E |---------------------------------|---------------------------------|

(Bridge)

Ending:
  | + . . . + . . . + . . . + . . . | + . . . + . . . + . . . + . . . |
G |---------------------------------|---------------------------------|
D |-6-------------------------------|-----------------6-/-8-\---------|
A |---------------------------------|---------------------------------|
E |---------------------------------|---------------------------------|

  | + . . . + . . . + . . . + . . . | + . . . + . . . + . . . + . . . |
G |---------------------------------|---------------------------------|
D |---------------------------------|-------------------------8-------|
A |-4-------------------------------|---------------------------------|
E |---------------------------------|---------------------------------|

  | + . . . + . . . + . . . + . . . | + . . . + . . . + . . . + . . . |
G |---------------------------------|---------------------------------|
D |-6-------------------------------|-----------------6-/-8-\---------|
A |---------------------------------|---------------------------------|
E |---------------------------------|---------------------------------|

  | + . . . + . . . + . . . + . . . | + . . . + . . . + . . . + . . . |
G |---------------------------------|---------------------------------|
D |---------------------------------|-------------------------6-------|
A |-4-------------------------------|---------------------------------|
E |---------------------------------|---------------------------------|

  | + . . . + . . . + . . . + . . . |
G |---------------------------------|
D |-4-------------------------------|
A |---------------------------------|
E |---------------------------------|

| /  slide up 
| \  slide down
| h  hammer-on
| p  pull-off
| ~  vibrato
| +  harmonic
| x  Mute note
===============================================================================
Добавлено: 19.05.2012
Другие материалы по этой песне:
  • Аккорды и текст

Страница создана 19.05.2012
http://primanota.ru/deportivo/fais-moi-comprendre-chords.htm
Привет, Гость.
Предлагаем пройти революционный курс по гитаре.
Подарок от PrimaNota.Ru, забирай!