PrimaNota.ru - самый крупный в мире бесплатный архив песенных текстов, аккордов, табулатур и нот


Deportivo - Exorde Barrate - бас-таба, видео

Регистрация Запомнить меня
Войти через:  Facebook Google Twitter Vk Yandex Mail.ru

Deportivo - Exorde Barrate - бас-таба, видео

Печатать
Просмотров: 111
-------------------------------------------------------------------------------
                         Exorde Barrate - Deportivo
-------------------------------------------------------------------------------

Tabbed By : superfranki

Tuning: Standard

Intro:
G |--------------------------------------------------------------------|
D |--------------------------------------------------------------------|
A |--------------------------------------------------------------------|
E |-10-10-10-10----10-10-10-10~----10-10-10-10--10--10--10-10-10-10-10-|

G |---------------------------|
D |---------------------------|
A |---------------------------|
E |-10--10--10--8-88-8-5-55-5-|

Riff 1:
G |----------------------------|
D |----------------------------| x4
A |-------------10--10-12-10-8-|
E |-10--10-8--8----------------|

G |-777777779999999910101010101010101212121212121212-|
D |--------------------------------------------------| x2
A |--------------------------------------------------|
E |--------------------------------------------------|

G |-------------------------|
D |-10-10-10-10-------------|
A |-------------13-12-10----|
E |----------------------12-|

Riff 2:
G |------------------------------|
D |----------7-10-----------7----|
A |-8--8--10-------8--8--10---10-|
E |------------------------------|

G |-------------------------------|
D |-7-7-7-8--8-8-8-7-7-7-8--8-8-8-|
A |-------------------------------|
E |-------------------------------|

G |---------------------------------14-|
D |-12--12--14-15-14--12--12--14-15----|
A |------------------------------------|
E |------------------------------------|

G |----------------------------------------|
D |----------------------------------------|
A |-13-13-13-15--15-15-17--17-17-15--15-15-|
E |----------------------------------------|

Riff 3:
G |------------------------------------------|
D |------------------------------11----14----|
A |-8-8-8-8-8-8-8-10-12-12-12-12----12----12-|
E |------------------------------------------|

Riff 4:
G |--------------------------|-----------------------------|
D |------7-8-7-----8-7-8-7---|--------7-8-7----------------|
A |-5--5-------8-5---------8-|-10--10-------8-------10-8-7-|
E |--------------------------|----------------8--8---------|

G |---------------------------|---------------------------|
D |------7-8-7----------7-8-7-|--------7-8-7--------------|
A |-5--5-------8-5--5-8-------|-10--10-------8------------|
E |---------------------------|----------------8--8--8--8-|

Riff 5:
G |--------------------------|--------------------------|
D |----7-7----7-----7-7----7-|-----------------2-2----2-|
A |-5-------5----5-------5---|----1-1----1--3-------3---|
E |--------------------------|-3-------3----------------|

G |--------------------------|-------------------------|
D |----7-7----7-----7-7----7-|-------------------------|
A |-5-------5----5-------5---|----1-1----1--3--3--3--3-|
E |--------------------------|-3-------3---------------|

G |--------------------------|----------------------------|
D |----7-7----7-----7-7----7-|-----8-8-----8--------------|
A |-5-------5----5-------5---|-10-------10-------7-7----7-|
E |--------------------------|----------------8-------8---|

G |--------------------------|----------------------|
D |----7-7----7-----7-7----7-|----------------------|
A |-5-------5----5-------5---|-3--------------------|
E |--------------------------|------3----5--5--5--5-|

Ending
G |------------------------------------------------|
D |------------------------------11----14----------|
A |-8-8-8-8-8-8-8-10-12-12-12-12----12-------------|
E |---------------------------------------10-10-10-|

G |------------------------------------------------|
D |------------------------------------------------|
A |------------------------------------------------|
E |-10~----10-10-10-10~----10-10-10-10--10--10--10-|

G |------------------------------------------------|
D |------------------------------------------------|
A |------------------------------------------------|
E |-10-10--10--10-10-10-10-10-10-10-10-10-10-10-10-|


Intro
Riff 1
Riff 2 x2
Riff 3
Riff 4
Riff 5
Riff 1
Riff 2 x2
Ending


| /  slide up 
| \  slide down
| h  hammer-on
| p  pull-off
| ~  vibrato
| +  harmonic
| x  Mute note
===============================================================================
Добавлено: 07.06.2012
Другие материалы по этой песне:

Страница создана 25.04.2012
http://primanota.ru/deportivo/exorde-barrate-chords.htm
Привет, Гость.
Предлагаем пройти революционный курс по гитаре.
Подарок от PrimaNota.Ru, забирай!