PrimaNota.ru - самый крупный в мире бесплатный архив песенных текстов, аккордов, табулатур и нот


Deportivo - En Ouvrant La Porte - бас-таба, видео

Регистрация Запомнить меня
Войти через:  Facebook Google Twitter Vk Yandex Mail.ru

Deportivo - En Ouvrant La Porte - бас-таба, видео

Печатать
Просмотров: 76
---------------------------------------------------------------------------------------------------------------
                                       Déportivo - En ouvrant la porte
---------------------------------------------------------------------------------------------------------------

Album : Déportivo (2007)
Tempo : 145
E-mail: gwendal.mollo@orange.fr
Tabbed by: newg

Intro :

G |----------------------------|----------------------------|
D |----------------------------|----------------------------|
A |--4--4--2--2--4--4--2--2----|--4--4--2--2----------------|
E |----------------------------|--------------5--5--5--5----| x4

Couplets :

|---------------------------|----------------------------|
|-------6-----------6--6----|--------9--------9--7--6----|
|-4--------------4----------|--7-------------------------|
|---------------------------|----------------------------| x3


|---------------------------|----------------------------|
|-------6-----------6--6----|--------9--9--7--7--6--6----|
|-4--------------4----------|--7-------------------------|
|---------------------------|----------------------------|


|----------------------------|----------------------------|
|--------7--7----------------|----------------------------|
|--4--4--------6--7--6--7----|--7--7--7--7--7--7--7--6----|
|----------------------------|----------------------------| x2


|----------------------------|----------------------------|
|--------7--7----------------|----------------------------|
|--4--4--------6--7--6--7----|--7--7--7--7--6--7--6--7----|
|----------------------------|----------------------------|


|---------------------------|----------------------------|
|-------6-----------6--6----|--------9--------9--9--9----|
|-4--------------4----------|--7-------------------------|
|---------------------------|----------------------------|


Refrains : 

|----------------------------|
|----------------------------|
|----------------------------|
|--5-----5--5-----5--5--5----|


----------------------------|----------------------------|
--2-----2--2-----2--2-------|----------------------------|
----------------------------|----------------------------|
----------------------------|--4-----4--4-----4--4-------|


----------------------------|----------------------------|
----------------------------|--4-----4--4-----4--4--4----|
--4-----4--4-----4--4--4----|----------------------------|
----------------------------|----------------------------|


----------------------------|----------------------------|
----------------------------|--2-----2-----2-----2-------|
--2-----2--2-----2--2-------|----------------------------|
----------------------------|----------------------------|


----------------------------|----------------------------|
----------------------------|--4--4--4--4--4--4--4--4----|
--4--4--4--4--4--4--4--4----|----------------------------|
----------------------------|----------------------------|


----------------------------|----------------------------|----|
----------------------------|----------------------------|----|
--2--2--2--2--2--2--2--2----|--4--4--4--4--4--4--4--4----|-%--|
----------------------------|----------------------------|----|


----------------------------|----------------------------|
--4-----4--4-----4--4--4----|----------------------------|
----------------------------|--2-----2--2-----2--2-------|
----------------------------|----------------------------|


----------------------------|----|----------------------------|
----------------------------|----|--4-----4-----4-----4-------|
--4--4--4--4--4--4--4--4----|-%--|----------------------------|
----------------------------|----|----------------------------|


----------------------------|----------------------------|
----------------------------|----------------------------|
----------------------------|--4--4--2--2--4--4--2--2----|
--4-----4-----4-----4-------|----------------------------|


Fin Refrain :

----------------------------|----------------------------|
----------------------------|----------------------------|
--4--4--2--2--4--4--2--2----|--4--4--2--2--0--0--0--0----|
----------------------------|----------------------------|

----------------------------|----------------------------|
----------------------------|----------------------------|
--4--4--2--2--4--4--2--2----|--4--4--2--2--0----0--2-----|
----------------------------|-----------------3----------|

Outro : 

|----------------------------|----------------------------|
|----------------------------|----------------------------|
|--7--7--7--x----------------|----------------------------|
|--------------5--5--x--9L---|--9--9--9--9--9--9--9--9----| x8





|----------------------------|
|----------------------------|
|--7--7--7--x----------------|
|--------------5--5--x--9----|


Добавлено: 14.06.2015
Вам также может быть интересно:
Другие материалы по этой песне:

Страница создана 14.06.2015
http://primanota.ru/deportivo/en-ouvrant-la-porte-chords.htm
Привет, Гость.
Предлагаем пройти революционный курс по гитаре.
Подарок от PrimaNota.Ru, забирай!