PrimaNota.ru - самый крупный в мире бесплатный архив песенных текстов, аккордов, табулатур и нот


Deportivo - Clasico Share You Love - бас-таба, видео

Регистрация Запомнить меня
Войти через:  Facebook Google Twitter Vk Yandex Mail.ru

Deportivo - Clasico Share You Love - бас-таба, видео

Печатать
Просмотров: 56
---------------------------------------------------------------------------------------------------------------
                                       Déportivo - Clasico ( Share you Love )
---------------------------------------------------------------------------------------------------------------

Album : Déportivo (2007)
Tempo : 160
E-mail: gwendal.mollo@orange.fr
Tabbed by: newg


Intro :

G |-------|-------|-------|-------|-------|
D |-------|-------|-------|-------|-------|
A |-------|-------|-------|-------|-------|
E |-------|-------|-------|-------|-------|


|----------------|----------------------------|
|----------------|----------------------------|
|--5.-5.---------|--------0--2-----0--2--0----|
|--------5.-5s---|--2-------------------------| x2


Couplets / Refrains : 

|----------------|----------------------------|
|----------------|----------------------------|
|--5.-5.---------|--------0--2-----0--2--0----|
|--------5.-5s---|--2-------------------------| 



Pont :

----------------|----------------|----------------|----------------|
----------------|----------------|----------------|----------------|
----------------|----------------|--5.-5.-5.-5.---|--5.-5.-5.-5.---|
--3.-3.-3.-3.---|--3.-3.-3.-3.---|----------------|----------------| x2



----------------|----------------|
----------------|----------------|
----------------|----------------|
--3.-3.-3.-3.---|--3.-3.-3.-3.---|


|-------------------------------------|-------------------------------------|-------|
|-------------------------------------|-------------------------------------|-------|
|-------------------------------------|-------------------------------------|-------|
|--6--5--5--5--5--5--5--5--5--5--5--5-|--5--5--5--5--5--5--7--7--7--9--9--9-|--10s--|


Solo 2 :

----------------|----------------|
----------------|----------------|
--5.-5.---------|--------2.-2.---|
--------5.-5.---|--2.-2.---------| x4

Outro :

----------------|----------------|
----------------|----------------|
--5-------------|--------2-------|
--------5-------|--2-------------| x4





Добавлено: 14.06.2015
Другие материалы по этой песне:

Страница создана 26.04.2012
http://primanota.ru/deportivo/clasico-share-you-love-chords.htm
Привет, Гость.
Предлагаем пройти революционный курс по гитаре.
Подарок от PrimaNota.Ru, забирай!