PrimaNota.ru - самый крупный в мире бесплатный архив песенных текстов, аккордов, табулатур и нот


Deportivo - Alambique - аккорды и текст, бас-таба, видео

Регистрация Запомнить меня
Войти через:  Facebook Google Twitter Vk Yandex Mail.ru

Deportivo - Alambique - аккорды и текст, бас-таба, видео

Печатать
Просмотров: 215
Уроки эстрадного вокала в Санкт-Петербурге
Alambique
Deportivo
----------------------------------------------------------------------------------------------------
                                        Déportivo - Alambiqué
----------------------------------------------------------------------------------------------------

Album : Parmi Eux (2004)
Tempo : 110
E-mail: gwendal.mollo@orange.fr
Tabbed by: newg


Intro et Couplet 
     F                        C9-5                       
E||-------1--1----1--1--0--|-------x-------------0--||
B||-------1--1----1--1--0--|-------3--3----3--3--0--||
G||-------2--2----2--2--x--|-------3--3----3--3--0--||
D||-------3--3----3--3-----|-------2--2----2--2-----||
A||---------------------x--|--3---------------3-----||
E||--1---------------------|------------------------||


Refrain :      

     Dm                                  G                                  Am       
E||-------1--1----1--1----1--1--1-----|-------3--3----3--3----3--3--3-----|-------0-------0--0----0--0--0--x--|
B||-------3--3----3--3----3--3--3--x--|-------0--0----0--0----0--0--0--x--|-------1--1----1--1----1--1--1--x--|
G||-------2--2----2--2----2--2-----x--|-------0--0----0--0----0--0-----x--|-------2--2----2--2----2--2--2-----|
D||--0---------------0-------------x--|-------0----------0----------------|----------2-------2-------2--------|
A||-----------------------------------|-----------------------------------|--0---------------0-------------x--|
E||-----------------------------------|--3-----------------------------x--|-----------------------------------|
                              
                    

intro:
F  C9-5 x2

          F          C9-5      F
Mais plus qu'une chanson adolescente 
             C9-5
Après j'vous jure 
             F
Ca en sera fini 
       C9-5         F
Des montées, des descentes 
       C9-5     F
De mon cœur aussi 
                C9-5 F
Mais j'aimais m'assoir 
            C9-5        F
J'aimais surtout la croire 
           C9-5   F
J'aimais m'assoir 
             C9-5
J'aimais nos rêves alambiqués 


Dm   G          Am                 Dm
     Ne vous déplaise j'vais pas céder 
     G          Am                  F  C9-5     F  C9-5 
     Ne vous déplaise j'vais pas céder 



             F     C9-5      F
Mais plus qu'un refrain adolescent 
             C9-5
Après j'vous jure 
           F
J'aurai menti 
              C9-5          F
Au sujet des montées des descentes 
       C9-5     F
De mon cœur aussi  
                C9-5 F
Mais j'aimais m'asseoir 
            C9-5    F
J'aimais surtout la voire
           C9-5   F
J'aimais m'asseoir 
             C9-5
J'aimais nos rêves alambiqués 


Dm   G          Am                 Dm
     Ne vous déplaise j'vais pas céder 
     G          Am                  F  C9-5     F  C9-5 
     Ne vous déplaise j'vais pas céder 

             F            C9-5
Et si j'ai l'oeil trop crédule 
           F      C9-5
Faut pas l'crever         x4

F
Добавлено: 28.10.2015
Другие материалы по этой песне:

Страница создана 15.05.2012
http://primanota.ru/deportivo/alambique-chords.htm
Привет, Гость.
Предлагаем пройти революционный курс по гитаре.
Подарок от PrimaNota.Ru, забирай!