PrimaNota.ru - самый крупный в мире бесплатный архив песенных текстов, аккордов, табулатур и нот


Depeche Mode - Work Hard - текст песни, бас-таба, видео

Регистрация Запомнить меня
Войти через:  Facebook Google Twitter Vk Yandex Mail.ru

Depeche Mode - Work Hard - текст песни, бас-таба, видео

Печатать
Просмотров: 198
Уроки эстрадного вокала в Санкт-Петербурге
Tabbed by: bassm99
E-mail: alanmatthews1966@yahoo.co.uk

Tuning: E, A, D, G

"Work Hard" from the single "Everything Counts" (1983)
Written by M.L.Gore/A.Wilder

Intro: (Play 4 Times)

G|---5-5-5-5-5-5-5-5--------------------------------------------------------|
D|--------------------------------------------------------------------------|
A|--3-3-3-3-3-3-3-3---------------------------------------------------------|
E|--------------------------------------------------------------------------|

Chorus: 

G|---5-5-5-5-5-5-5-5---10-10-10-10----12--12--12--12------------------------|
D|--------------------------------------------------------------------------|
A|--3-3-3-3-3-3-3-3---8--8--8--8----10--10--10--10--------------------------|
E|--------------------------------------------------------------------------|

G|---5-5-5-5-5-5-5-5---10-10-10-10----12-12---5-5---------------------------|
D|--------------------------------------------------------------------------|
A|--3-3-3-3-3-3-3-3---8--8--8--8----10-10----3-3----------------------------|
E|--------------------------------------------------------------------------|

Verse: (Play 4 Times)

G|-------------7--8---------------------------------------------------------|
D|---5-5-5-5---------8--10--------------------------------------------------|
A|------------5--6----------------------------------------------------------|
E|--3-3-3-3---------6--8----------------------------------------------------|

Instrumental Bridge:

G|---5-5-5-5-----------------------9-9-9-9---5-5-5-5------------------------|
D|-------------3-3-3-3---5-5-5-5-----------------------3-3-3-3---5-5-5-5----|
A|--3-3-3-3-----------------------7-7-7-7---3-3-3-3-------------------------|
E|------------1-1-1-1---3-3-3-3-----------------------1-1-1-1---3-3-3-3-----|

G|-------------7-7-7-7-7-7-7-7--10-10-10-10-10-10-10-10---------------------|
D|---2-2-2-2---------------------------------------------8-8-8-8-8-8-8-8----|
A|------------5-5-5-5-5-5-5-5--8--8--8--8--8--8--8--8-----------------------|
E|--0-0-0-0---------------------------------------------6-6-6-6-6-6-6-6-----|

G|---7-7-7-7-7-7-7-7--------------------------------------------------------|
D|--------------------------------------------------------------------------|
A|--5-5-5-5-5-5-5-5---------------------------------------------------------|
E|--------------------------------------------------------------------------|

Work Hard Chorus: (Play 4 Times)

G|--------------------------------------------------------------------------|
D|---5-5-5-5-5-5-5-5--------------------------------------------------------|
A|--------------------------------------------------------------------------|
E|--3-3-3-3-3-3-3-3---------------------------------------------------------|

Repeat Chorus:

Repeat Verse:

Repeat Instrumental Bridge:

Repeat Work Hard Chorus:

Repeat Chorus:

Second Work Hard Chorus: (Play 4 Times)

G|---5-5-5-5-5-5-5-5--------------------------------------------------------|
D|--------------------------------------------------------------------------|
A|--3-3-3-3-3-3-3-3---------------------------------------------------------|
E|--------------------------------------------------------------------------|

Instrumental:

G|---5-5-5-5-----------------------9-9-9-9----------------------------------|
D|-------------3-3-3-3---5-5-5-5--------------------------------------------|
A|--3-3-3-3-----------------------7-7-7-7-----------------------------------|
E|------------1-1-1-1---3-3-3-3---------------------------------------------|

Repeat Second Work Hard Chorus: 

Bass Stops: (3:40 - 3:47)

Repeat Instrumental:

Repeat Second Work Hard Chorus: 

Bass Stops: 4:08
Добавлено: 12.05.2015
Другие материалы по этой песне:
  • Аккорды и текст

Страница создана 19.07.2012
http://primanota.ru/depeche-mode/work-hard-chords.htm
Привет, Гость.
Предлагаем пройти революционный курс по гитаре.
Подарок от PrimaNota.Ru, забирай!