PrimaNota.ru - самый крупный в мире бесплатный архив песенных текстов, аккордов, табулатур и нот


Depeche Mode - When The Body Speaks - аккорды и текст, таба, перевод, видео

Регистрация Запомнить меня
Войти через:  Facebook Google Twitter Vk Yandex Mail.ru

Depeche Mode - When The Body Speaks - аккорды и текст, таба, перевод, видео

Печатать
Просмотров: 276
When The Body Speaks
Depeche Mode
VERSE1:
E|----------------------------------------------|
B|-12-----12--15-----15--13-----13-------15-12--|
G|------12--12-----12--12-----12--12---12-------|
D|----------------------------------------------|
A|----------------------------------------------|
E|----------------------------------------------|
 
E|----------------------------------------|
B|---12--15-----15--13-----13-------15-12-|
G|-12--12-----12--12-----12--12---12------|
D|----------------------------------------|
A|----------------------------------------|
E|----------------------------------------|
To the soul's desires, the body listens;
what the flesh requires keeps our heart imprisoned

E|-------------------------------------------|
B|---12-10-----10-10\8----8----10-12---9/12--|
G|-12--------11----------9-9-----9-----9/12--|
D|-------------------------------------------|
A|-------------------------------------------|
E|-------------------------------------------|

E|------------------------------------------|
B|--12--15-----15--13-----13-------15--12---|
G|----12--12-----12--12-----12--12---12--12-|
D|------------------------------------------|
A|------------------------------------------|
E|------------------------------------------|
What the spirit seeks, the mind will follow;
wehn the body speaks all else is hallow

E|------------------------------------------------|
B|---------12--12-------10----10-----10-----10----|
G|-----------12--12-------11----11-----11-----11--|
D|-12-12-12-----------12----12-----------12-------|
A|------------------------------------------------|
E|------------------------------------------------|

E|----------------------------------------------|
B|--10-8---8----8----8----8-7--7----7--7---7/12-|
G|------9---9----9----9------7--7----7--7--7/12-|
D|-------10-------10----------9-------9--9-7/12-|
A|----------------------------------------------|
E|----------------------------------------------|
I'm just an angel, driving blindly through this world

E|--------------------------------------------------|
B|-----12---------12------10----10-----10-----10----|
G|-12----12--12-12--12------11----11-----11-----11--|
D|---12----12-----------12----12-----------12-------|
A|--------------------------------------------------|
E|--------------------------------------------------|

E|-----------------------------------------|
B|--10-8---8----8----8----8-7--7----7---7--|
G|------9---9----9----9------7--7----7---7-|
D|-------10-------10----------9-------9----|
A|-----------------------------------------|
E|-----------------------------------------|
I'm just a slave here, at the mercy of a girl...

CHORUS
E|- B- E- B- E- B- A- C B- G
E|-7-7---7-7---7-7---7-7---7-7---7-7---7-7---7-7--|
B|-8-8---8-8---7-7---7-7---8-8---8-8---7-7---7-7--|
G|-9-9---9-9---7-7---7-7---9-9---9-9---7-7---7-7--|
D|-9-9---9-9---9-9---9-9---9-9---9-9---9-9---9-9--|
A|-7-7---7-7---9-9---9-9---7-7---7-7---9-9---9-9--|
E|-7-7---7-7---7-7---7-7---7-7---7-7---7-7---7-7--|

E|--7-7---7-7---7-7---7-7---5-5---8--7---3-3---3-3-
B|--8-8---8-8---7-7---7-7---5-5---8--7---3-3---3-3-
G|--9-9---9-9---7-7---7-7---5-5---9--7---4-4---4-4-
D|--9-9---9-9---9-9---9-9---7-7---10-9---5-5---5-5-
A|--7-7---7-7---9-9---9-9---7-7---10-9---5-5---5-5-
E|--7-7---7-7---7-7---7-7---5-5---8--7---3-3---3-3-
Ooh, I need your tenderness; ooh, I need your touch;
ooh, I dreamed of one caress; ooh, I prayed too much

VERSE2:
E|---------------------------------------------------|
B|-12----12----15----15----13----13----13--------15--|
G|---12----12----12----12----12----12----12----------|
D|-----12----12----12----12----12----12----12-12-----|
A|---------------------------------------------------|
E|---------------------------------------------------|

E|------------------------------------------------------|
B|-12----12----15----15----13----13----13--------15--12-|
G|---12----12----12----12----12----12----12-------------|
D|-----12----12----12----12----12----12----12-12--------|
A|------------------------------------------------------|
E|------------------------------------------------------|
To the soul's desires, the body listens;
what the flesh requires keeps our heart imprisoned

E|---------------------------------------------------|
B|-----12--12-----10----10--10-----8---8--10---12----|
G|-12--------12-----11--------11----9-------9----9---|
D|---12--12-----------12--12---------10-10---10---10-|
A|---------------------------------------------------|
E|---------------------------------------------------|

E|-------------------------------------------------------|
B|8/12----12----15----15----13----13----13--------15--12-|
G|----12----12----12----12----12----12----12-------------|
D|------12----12----12----12----12----12----12-12--------|
A|-------------------------------------------------------|
E|-------------------------------------------------------|
what the spirit seeks, the mind will follow;
when the body speaks, all else is hallow

E|------------------------------------------------------|
B|-----12-----12-----12-------10----10-----10-----10----|
G|-12----12-----12-----12-------11----11-----11-----11--|
D|---12---------------------12----12-----------12-------|
A|------------------------------------------------------|
E|------------------------------------------------------|

E|----------------------------------------------|
B|--10-8---8----8----8----8-7--7----7--7---7/12-|
G|------9---9----9----9------7--7----7--7--7/12-|
D|-------10-------10----------9-------9--9-7/12-|
A|----------------------------------------------|
E|----------------------------------------------|
You keep me waiting for a promise that is mine

E|-------------------------------------------------------|
B|-----12----12----12-------10----10----10----12-10------|
G|-12----12----12----12-------11----11----11-------11----|
D|---12----12----12----12-------12----12-------------12--|
A|-------------------------------------------------------|
E|-------------------------------------------------------|

E|---------------------------------------|
B|--10-8---8---8---8------8-7--7--7--7---|
G|------9---9---9---9--------7--7--7--7--|
D|-------10--10--10--10-------9--9--9--9-|
A|---------------------------------------|
E|---------------------------------------|
Please stop debating, please stop wasting your time...

CHORUS AGAIN

OUTRO:
E|---------------------------------------------|
B|-12----12--15---15-13-17---13--13---15--12---|
G|-----12--12---12---------12--12---12--12-----|
D|---------------------------------------------|
A|---------------------------------------------|
E|---------------------------------------------|

E|----------------------12------------|
B|---12--15---15-13---13----13--15-12-|
G|-12--12---12------12----12--12------|
D|------------------------------------|
A|------------------------------------|
E|------------------------------------|

And it goes on with many variations til the end
Добавлено: 24.02.2014
Другие материалы по этой песне:
  • Аккорды и текст

Страница создана 27.03.2012
http://primanota.ru/depeche-mode/when-the-body-speaks-chords.htm
Привет, Гость.
Предлагаем пройти революционный курс по гитаре.
Подарок от PrimaNota.Ru, забирай!