PrimaNota.ru - самый крупный в мире бесплатный архив песенных текстов, аккордов, табулатур и нот


Depeche Mode - Uselink - таба, видео

Регистрация Запомнить меня
Войти через:  Facebook Google Twitter Vk Yandex Mail.ru

Depeche Mode - Uselink - таба, видео

Печатать
Просмотров: 155
Song: Uselink
Band: Depeche mode
Album: Ultra
Year: 1997
Tabber: beranger80@hotmail.com



Intro (0:00)

e----------|
b----------|
g----------|
d--6-echo--| x3 
a----------|
d----------|



Riff A (0:33)

e-------------------------|--------------|
b-----------4-------------|-----------4--|
g-------------------------|--------------|
d--1-------------1--------|--1-----------| x6
a-------------------------|--------------|
d----4-1-4---------4-1-4--|----4-1-4-----|



Riff B (1:33)

e---------11---------|
b--------------------|
g--8--8-6----8--8-6--|
d--------------------| x6 
a--------------------|
d--------------------|



Outro (2:04)

e------------------------|------------|--------------|
b-----------4------------|------------|-----------4--|
g------------------------|------------|--------------|
d--1-------------1-------|------------|--1-----------|
a------------------------|-------7-6--|--------------|
d----4-1-4---------4-1-4-|--6-6-------|----4-1-4-----|
Добавлено: 12.05.2015
Вам также может быть интересно:
Другие материалы по этой песне:
  • Аккорды и текст

Страница создана 12.05.2015
http://primanota.ru/depeche-mode/uselink-chords.htm
Привет, Гость.
Предлагаем пройти революционный курс по гитаре.
Подарок от PrimaNota.Ru, забирай!