PrimaNota.ru - самый крупный в мире бесплатный архив песенных текстов, аккордов, табулатур и нот


Departure - All Mapped Out - текст песни, таба, видео

Регистрация Запомнить меня
Войти через:  Facebook Google Twitter Vk Yandex Mail.ru

Departure - All Mapped Out - текст песни, таба, видео

Печатать
Просмотров: 224
Like the boxer rebellion there is no tab for the departure anywhere so enjoy the wrath 
this great british band

Tuning: standard (E,A,D,G,B,e)


E]------------------------|----------------------------------|
B]------------------------|----------------------------------|
G]-----------—------------|----------------------------------|
D]------------------------|----------------------------------|
A]--8-8—--8\----------3-3-|----------------------------------|
E]---------------4-4------|--4-4-4-4-4-4-4-4-4-4-4-4--6-6-6--|
           X3                      last time ^

E]----------------------------------------|
B]----------------------------------------|
G]---10---10---10---10---10---10---12--12-|
D]-15---15---15---15---13---13---17--17---|
A]----------------------------------------|
E]----------------------------------------|

E]----------------------------------------|
A]----------------------------------------|
D]---10---10---10---10---12--12---5---5---|
G]-15---15---15---15---13---13---8---8----|
B]----------------------------------------|
E]----------------------------------------|


E]-----------------------------|
B]-----------------------------|
G]-----------—-----------------|
D]-----------------------------|
A]----8-8------------------3-3-|
E]--13----13\--4-4-4-4--8-8----|


E]----------------------------|
B]----------------------------|
G]--10-10--10—10--10-10--8-8--|
D]--10-10--10-10--10-10--8-8--|
A]--8--8---8--8---8--8---6-6--|
E]----------------------------|

E]--------------------------------|------------|
B]--------------------------------|--9---9---9-|
G]-----------—--------------------|-12--12--12-|
D]-6-6-6-6-6-6-6-6-6-6-6-6--8-8-8-|------------|
A]--------------------------------|------------|
E]--------------------------------|------------|

E]----------------------------|---------------------------|
B]----9---9---9-------4---4---|----9---9---9-------4------|
G]--12--12--12------5---3-----|--12--12--12------5---6--3-|
D]--------------------------5-|---------------------------|
A]----------------------------|---------------------------|
E]----------------------------|---------------------------|

E]-----4-----4-----------------|
B]-----4-----4-----------------|
G]-----------—-----------------|
D]--3-3----3-3-----------------|
A]-----------------------------|
E]-----------------------------|

E]--------------------------|
B]--------------------------|
G]-----------—--------------|
D]--------------------------|
A]-----3-3------6-6---------|
E]-4-4------6-6---------1-1-|
Добавлено: 19.05.2012
Другие материалы по этой песне:
  • Аккорды и текст

Страница создана 28.03.2012
http://primanota.ru/departure/all-mapped-out-chords.htm
Привет, Гость.
Предлагаем пройти революционный курс по гитаре.
Подарок от PrimaNota.Ru, забирай!