PrimaNota.ru - самый крупный в мире бесплатный архив песенных текстов, аккордов, табулатур и нот


Department Of Eagles - No One Does It Like You - таба, видео

Регистрация Запомнить меня
Войти через:  Facebook Google Twitter Vk Yandex Mail.ru

Department Of Eagles - No One Does It Like You - таба, видео

Печатать
Просмотров: 168
Уроки эстрадного вокала в Санкт-Петербурге
------------------------------------
No One Does It Like You guitar tab
Department of Eagles
Tabbed by legato72 AKA mraymond77 AKA Mike
------------------------------------

Drop D tuning

There are a few different renditions of this song, I take mostly from the
live pitchfork video, and other similar live renditions.
Naturally, this is just an approximation/educated guess as to what Dan plays
from studying the video. Strum pattern is not portrayed exactly either.

Intro

e|------------------------------9-9-9-----------0-------0------------|
B|------------------------------9-9-9-----------0-------0------------|
G|------------------------------9-9-9-----------1-------1------------|
D|-----------------------------11-9h11----------2-------2------------|
A|------------------------------9-9-9-----------x-------x------------|
D|---9h11--11--11--11---9---9---9-9-9---2---2---2--1/2--2--2--2------|


repeat once
then

e|---2-----2-----2-----2-----2-----2-----2---------------------------|
B|---0-----0-----0-----0-----0-----0-----0---------------------------|
G|---2-----2-----2-----2-----2-----2-----2---------------------------|
D|---1-----1-----1-----1-----1-----1-----1----------1----------------|
A|---2-----2-----2-----2-----2-----2-----2---2--4--------------------|
D|---1--1--1--1--1--1--1--1--1--1--1--1--1---------------------------|

Use thumb to play this chord. sometimes strummed as fast triplets.


Verse:
(slightly mute where appropriate)
                                                      *
e|----------------------------------------------------5-5-5--4--4-4--|
B|------------------------------------------4---------5-5-5--4--4-4--|
G|------------------------------------------4---------5-5-5--4--4-4--|
D|------------------------------------------6---------5-5-5--4--4-4--|
A|--------4---4--------8--8--9--9--8--8-----x---------7-7-7--6--4-6--|
D|-2---2---------7--7--7--7--7--7--7--7--6--6--6---5--5-5-5--4--4-4--|
                                                      *
  out in the morning calm               you don't need to have an alibi


e|-------------------------------------------------------------------|
B|------------------------------------------4------------------------|
G|---------------------6--6--6--6--6--6-----4------5--5--5--5--5--5--|
D|---------------------7--7--7--7--7--7-----6------7--7--7--7--7--7--|
A|--------4---4--------8--8--9--9--8--8-----x------8--8--9--9--10-10-|
D|-2---2---------7--7--7--7--7--7--7--7--6--6--6---7--7--7--7--7--7--|

  and  in the morning calm           you don't need to be so honest

                                                     *
e|-----------9--9---------------------------4--------5-5-5--4---4-4--|
B|----9------9--9---------------------------4--------5-5-5--4---4-4--|
G|----9------9--9------6--6--6--6--6--6-----4--------5-5-5--4---4-4--|
D|----9------11-11-----7--7--7--7--7--7--6--6--------7-7-7--4---4-4--|
A|----x------x--x------8--8--9--9--8--8--x--x--------5-5-5--6---4-6--|
D|-9--9--11--11-11-7-7-7--7--7--7--7--7--6--6--6---5-5-5-5--4---4-4--|
                                                     *
  and in the moring calm            you don't need to have an alibi


e|------------9------------------------------------------------------|
B|-----9------9------------------------------------------------------|
G|-----9------9--------6--6--6--6--6--6-----4------5--5--5--5--5--5--|
D|-----9------11-------7--7--7--7--7--7-----6------7--7--7--7--7--7--|
A|-----x------x--------8--8--9--9--8--8-----x------8--8--9--9--10-10-|
D|-9---9--11--11----7--7--7--7--7--7--7--6--6--6---7--7--7--7--7--7--|

   and in the morning calm         you don't need to breathe so easy


note:
the chords with the asterix (*) are also often
played as:

e|-----3--3--3---2--2--2-2---|
B|-----5--3--5---4--4--2-4---|
G|-----3--3--3---2--2--2-2---|
D|-----5--5--5---4--4--4-4---|
A|--3--3--3--3---2--2--2-2---|
D|---------------------------|

e|-----------------------------------------5--5--5--5---2--2--2--2---|
B|----------------------------------8--6---5--5--5--5---2--2--2--2---|
G|--------1-----------1-------------6--6---5--5--5--5---2--2--2--2---|
D|--------2-----------2-------------7--7---7--7--7--7---4--4--4--2h4-|
A|------2----------2-------------7---------5--5--5--5---2--2--2--2---|
D|---2----------0-------------6------------7--7--7--7---4--4--4--4---|

  I laughed so hard I fell down           whoaaaaaaa


e|--------------------------------------10-10---2--2--2--2--2--2--2--|
B|--------------------------------8--6--10-10---2--2--4--4--5--5--4--|
G|--------1-----------1-----------6--6--10-10---2--2--2--2--2--2--2--|
D|--------2-----------2-----------7--7--7--7----4--4--4--4--4--4--4--|
A|------2----------2-----------7--------x--x----2--2--2--2--2--2--2--|
D|---2----------0-----------6-----------0--0----4--4--4--4--4--4--4--|

  I cursed these legs I walked on           whoaaaaaaa


Chorus:

e|--9---9----9--9---0--0--0--2--2p0---9---9----9--9---0--0--0--0-----|
B|--9---9----9--9---0--2--0--0----2---9---9----9--9---0--0--0--0-----|
G|--9---9----9--9---1--1--1--1----1---9---9----9--9---1--1--1--1-----|
D|--11--11---9--9---2--2--2--2----2---11--11---9--9---2--2--2--2-----|
A|-------------------------------------------------------------------|
D|--11--11---9--9---2--2--2--2----2---11--11---9--9---2--2--2--2-----|

 No one does it like you              No one does it like you


e|---2-----2-----2-----2-----2-----2-----2----------0--0--------0-0--|
B|---0-----0-----0-----0-----0-----0-----0----------0--0--------0-0--|
G|---2-----2-----2-----2-----2-----2-----2----------1--1--------1-1--|
D|---1-----1-----1-----1-----1-----1-----1----------2--2--------2-2--|
A|---2-----2-----2-----2-----2-----2-----2----------2--2--------2-2--|
D|---1--1--1--1--1--1--1--1--1--1--1--1--1---2--2---2--2--2--2--2-2--|

    I tried so hard                                 *


    *He throws in this little  e|-----2--/--4-4----------------------|
    this little slide thing    B|------------------------------------|
    quick in this E chord on   G|-----2--/--4-4----------------------|
    the  pitchfork video:      D|------------------------------------|
                               A|------------------------------------|
                               D|------------------------------------|

repeat Chorus

Ending:


e|------------------2-----|
B|---4----3----2----0-----|
G|---1----1----1----2-----|
D|------------------1-----|
A|---2----2----2----2-----|
D|---2----2----2----1-----|

    oh  oh   oh   ohhh
Добавлено: 13.04.2012
Другие материалы по этой песне:
  • Аккорды и текст

Страница создана 13.04.2012
http://primanota.ru/department-of-eagles/no-one-does-it-like-you-chords.htm
Привет, Гость.
Предлагаем пройти революционный курс по гитаре.
Подарок от PrimaNota.Ru, забирай!