PrimaNota.ru - самый крупный в мире бесплатный архив песенных текстов, аккордов, табулатур и нот


Department Of Eagles - Around The Bay - таба, видео

Регистрация Запомнить меня
Войти через:  Facebook Google Twitter Vk Yandex Mail.ru

Department Of Eagles - Around The Bay - таба, видео

Печатать
Просмотров: 159
I Hope you have long fingers. D- down U- up.
Thanks,

Jake Miller

e|------------------------------------------------------------------|
B|-------8-------8-------8-------8-------8-------8-------8-------8--|
G|---0-------0-------0-------0-------0-------0-------0-------0------|
D|-----5-------5-------5-------5-------5-------5-------5-------5----| x2
A|------------------------------------------------------------------|
E|-3-------3-------3-------3-------3-------3-------3-------3--------|

Year or two older to-
e|------------------------------------------------------------------|
B|-------9-------9-------9-------9-------8-------8-------8-------8--|
G|---0-------0-------0-------0-------0-------0-------0-------0------|
D|-----6-------6-------6-------6-------5-------5-------5-------5----|
A|------------------------------------------------------------------|
E|-8-------8-------8-------8-------7-------7-------6-------6--------|

day
e|------------------------------------------------------------------|
B|------------------------------------------------------------------|
G|-------5-------5-------5---------------5-------5-------5----------|
D|---6-------6-------6---------------6-------6-------6--------------|
A|-----6-------6-------6-------6-------6-------6-------6-------6----|
E|-4-------4-------4-------4-------4-------4-------4-------4--------|

All my words, theyve flown a-
e|------------------------------------------------------------------|
B|-------9-------9-------9-------9-------8-------8-------8-------8--|
G|---0-------0-------0-------0-------0-------0-------0-------0------|
D|-----6-------6-------6-------6-------5-------5-------5-------5----|
A|------------------------------------------------------------------|
E|-8-------8-------8-------8-------7-------7-------6-------6--------|

Way
e|------------------------------------------------------------------|
B|------------------------------------------------------------------|
G|-------5-------5-------5---------------5-------5-------5----------|
D|---6-------6-------6---------------6-------6-------6--------------|
A|-----6-------6-------6-------6-------6-------6-------6-------6----|
E|-4-------4-------4-------4-------4-------4-------4-------4--------|

Ill wait around for a-
e|------------------------------------------------------------------|
B|------------------------------------------------------------------|
G|-------3-------3-------3---------------3-------3-------3----------|
D|---3-------3-------3---------------3-------3-------3--------------|
A|-----4-------4-------4-------4-------4-------4-------4-------4----|
E|-3-------3-------3-------3-------3-------3-------3-------3--------|

Nother soul
e|------------------------------------------------------------------|
B|------------------------------------------------------------------|
G|-------2-------2-------2---------------2-------2-------2----------|
D|---3-------3-------3---------------3-------3-------3--------------|
A|-----3-------3-------3-------3-------3-------3-------3-------3----|
E|-1-------1-------1-------1-------1-------1-------1-------1--------|

With those birds out in 
e|-0-0-0-0-0-0--0-0-0-0-0-0--0-0-0-0-0-0--8-8-8-8-8-8---------------|
B|-1-1-1-1-1-1--1-1-1-1-1-1--0-0-0-0-0-0--8-8-8-8-8-8---------------|
G|-2-2-2-2-2-2--2-2-2-2-2-2--1-1-1-1-1-1--8-8-8-8-8-8---------------|
D|-2-2-2-2-2-2--2-2-2-2-2-2--2-2-2-2-2-2--5-5-5-5-5-5---------------|
A|-3-3-3-3-3-3--3-3-3-3-3-3--2-2-2-2-2-2--6-6-6-6-6-6---------------|
E|-0-0-0-0-0-0--0-0-0-0-0-0--0-0-0-0-0-0----------------------------|
   D D U U D U  D D U U D U  D D U U D U  D D U U D U

The bay
e|------------------------------------------------------------------|
B|------------------------------------------------------------------|
G|-------5-------5-------5---------------5-------5-------5----------|
D|---6-------6-------6---------------6-------6-------6--------------|
A|-----6-------6-------6-------6-------6-------6-------6-------6----|
E|-4-------4-------4-------4-------4-------4-------4-------4--------|

Making their rounds like I 
e|------------------------------------------------------------------|
B|------------------------------------------------------------------|
G|-------3-------3-------3---------------3-------3-------3----------|
D|---3-------3-------3---------------3-------3-------3--------------|
A|-----4-------4-------4-------4-------4-------4-------4-------4----|
E|-3-------3-------3-------3-------3-------3-------3-------3--------|

Knew they would
e|------------------------------------------------------------------|
B|------------------------------------------------------------------|
G|-------2-------2-------2---------------2-------2-------5-------5--|
D|---3-------3-------3---------------3-------3-------6-------6------|
A|-----3-------3-------3-------3-------3-------3-------6-------6----|
E|-1-------1-------1-------1-------1-------1-------1/4-----4--------|

All my thoughts left me a-
e|------------------------------------------------------------------|
B|-------9-------9-------9-------9-------8-------8-------8-------8--|
G|---0-------0-------0-------0-------0-------0-------0-------0------|
D|-----6-------6-------6-------6-------5-------5-------5-------5----|
A|------------------------------------------------------------------|
E|-8-------8-------8-------8-------7-------7-------6-------6--------|

Gain 
e|------------------------------------------------------------------|
B|------------------------------------------------------------------|
G|-------5-------5-------5---------------5-------5-------5----------|
D|---6-------6-------6---------------6-------6-------6--------------|
A|-----6-------6-------6-------6-------6-------6-------6-------6----|
E|-4-------4-------4-------4-------4-------4-------4-------4--------|

Bliss me out, send me a-
e|------------------------------------------------------------------|
B|-------9-------9-------9-------9-------8-------8-------8-------8--|
G|---0-------0-------0-------0-------0-------0-------0-------0------|
D|-----6-------6-------6-------6-------5-------5-------5-------5----|
A|------------------------------------------------------------------|
E|-8-------8-------8-------8-------7-------7-------6-------6--------|

way
e|------------------------------------------------------------------|
B|------------------------------------------------------------------|
G|-------5-------5-------5---------------5-------5-------5----------|
D|---6-------6-------6---------------6-------6-------6--------------|
A|-----6-------6-------6-------6-------6-------6-------6-------6----|
E|-4-------4-------4-------4-------4-------4-------4-------4--------|

Ill wait around for a-
e|------------------------------------------------------------------|
B|------------------------------------------------------------------|
G|-------3-------3-------3---------------3-------3-------3----------|
D|---3-------3-------3---------------3-------3-------3--------------|
A|-----4-------4-------4-------4-------4-------4-------4-------4----|
E|-3-------3-------3-------3-------3-------3-------3-------3--------|

Nother soul
e|------------------------------------------------------------------|
B|------------------------------------------------------------------|
G|-------2-------2-------2---------------2-------2-------2----------|
D|---3-------3-------3---------------3-------3-------3--------------|
A|-----3-------3-------3-------3-------3-------3-------3-------3----|
E|-1-------1-------1-------1-------1-------1-------1-------1--------|

Watch those birds out in 
e|-0-0-0-0-0-0--0-0-0-0-0-0--0-0-0-0-0-0--8-8-8-8-8-8---------------|
B|-1-1-1-1-1-1--1-1-1-1-1-1--0-0-0-0-0-0--8-8-8-8-8-8---------------|
G|-2-2-2-2-2-2--2-2-2-2-2-2--1-1-1-1-1-1--8-8-8-8-8-8---------------|
D|-2-2-2-2-2-2--2-2-2-2-2-2--2-2-2-2-2-2--5-5-5-5-5-5---------------|
A|-3-3-3-3-3-3--3-3-3-3-3-3--2-2-2-2-2-2--6-6-6-6-6-6---------------|
E|-0-0-0-0-0-0--0-0-0-0-0-0--0-0-0-0-0-0----------------------------|
   D D U U D U  D D U U D U  D D U U D U  D D U U D U

The bay
e|------------------------------------------------------------------|
B|------------------------------------------------------------------|
G|-------5-------5-------5---------------5-------5-------5----------|
D|---6-------6-------6---------------6-------6-------6--------------|
A|-----6-------6-------6-------6-------6-------6-------6-------6----|
E|-4-------4-------4-------4-------4-------4-------4-------4--------|

Making their rounds like I 
e|------------------------------------------------------------------|
B|------------------------------------------------------------------|
G|-------3-------3-------3---------------3-------3-------3----------|
D|---3-------3-------3---------------3-------3-------3--------------|
A|-----4-------4-------4-------4-------4-------4-------4-------4----|
E|-3-------3-------3-------3-------3-------3-------3-------3--------|

Knew they would
e|------------------------------------------------------------------|
B|------------------------------------------------------------------|
G|-------2-------2-------2---------------2-------2-------2----------|
D|---3-------3-------3---------------3-------3-------3--------------|
A|-----3-------3-------3-------3-------3-------3-------3-------3----|
E|-1-------1-------1-------1-------1-------1-------1-------1--------|

e|-4-4-4-4-4-4-4-4-4-4-4-4-|
B|-4-4-4-4-4-4-6-4-6-4-4-4-|
G|-5-5-5-5-5-5-5-5-5-5-5-5-|
D|-6-6-6-6-4-4-4-4-4-4-4-4-|
A|-6-6-6-6-6-6-6-6-6-6-6-6-|
E|-4-4-4-4-4-4-4-4-4-4-4-4-|
   D U D U U D U U U U D U

Running all 
e|-3-3-3-3-3-3-|
B|-3-3-3-3-3-3-|
G|-5-5-5-5-5-5-|
D|-5-5-5-5-5-5-|        x4
A|-6-6-6-6-6-6-|
E|-3-3-3-3-3-3-|
   D D U U D U

Around 
e|-4-4-4-4-4-4-4-4-4-4-4-4-|
B|-4-4-4-4-4-4-6-4-6-4-4-4-|
G|-5-5-5-5-5-5-5-5-5-5-5-5-|
D|-6-6-6-6-4-4-4-4-4-4-4-4-|
A|-6-6-6-6-6-6-6-6-6-6-6-6-|
E|-4-4-4-4-4-4-4-4-4-4-4-4-|
   D U D U U D U U U U D U

Running all 
e|-3-3-3-3-3-3-|
B|-3-3-3-3-3-3-|
G|-5-5-5-5-5-5-|
D|-5-5-5-5-5-5-|        x4
A|-6-6-6-6-6-6-|
E|-3-3-3-3-3-3-|
   D D U U D U

Around 
e|-1-1-1-1-1-1-|
B|-1-1-1-1-1-1-|
G|-2-2-2-2-2-2-|
D|-3-3-3-3-3-3-|        x4
A|-3-3-3-3-3-3-|
E|-1-1-1-1-1-1-|
   D D U U D U

e|-0-0-0-0-0-0--0-0-0-0-0-0--0-0-0-0-0-0--8-8-8-8-8-8---------------|
B|-1-1-1-1-1-1--1-1-1-1-1-1--0-0-0-0-0-0--8-8-8-8-8-8---------------|
G|-2-2-2-2-2-2--2-2-2-2-2-2--1-1-1-1-1-1--8-8-8-8-8-8---------------|
D|-2-2-2-2-2-2--2-2-2-2-2-2--2-2-2-2-2-2--5-5-5-5-5-5---------------|
A|-3-3-3-3-3-3--3-3-3-3-3-3--2-2-2-2-2-2--6-6-6-6-6-6---------------|
E|-0-0-0-0-0-0--0-0-0-0-0-0--0-0-0-0-0-0----------------------------|
   D D U U D U  D D U U D U  D D U U D U  D D U U D U

e|-4-4-4-4-4-4-4-4-4-4-4-4-|
B|-4-4-4-4-4-4-6-4-6-4-4-4-|
G|-5-5-5-5-5-5-5-5-5-5-5-5-|
D|-6-6-6-6-4-4-4-4-4-4-4-4-|
A|-6-6-6-6-6-6-6-6-6-6-6-6-|
E|-4-4-4-4-4-4-4-4-4-4-4-4-|
   D U D U U D U U U U D U

Running all 
e|-3-3-3-3-3-3-|
B|-3-3-3-3-3-3-|
G|-5-5-5-5-5-5-|
D|-5-5-5-5-5-5-|        x4
A|-6-6-6-6-6-6-|
E|-3-3-3-3-3-3-|
   D D U U D U

Around 
e|-1-1-1-1-1-1-|
B|-1-1-1-1-1-1-|
G|-2-2-2-2-2-2-|
D|-3-3-3-3-3-3-|        x4
A|-3-3-3-3-3-3-|
E|-1-1-1-1-1-1-|
   D D U U D U

e|------------------------------------------------------------------|
B|-------8--------8-------8-------7-------6-------6-------6-------3-|
G|---0--------0-------0-------0-------0-------0-------0-------0-----|
D|-----6--------6-------6-------5-------3-------3-------3-------3---|
A|------------------------------------------------------------------|
E|-3-------3--------3-------3-------3-------3-------3-------3-------|

e|------------------------------------------------------------------|
B|-------3-------3-------3-------3-------3-------3-------3-------3--|
G|---0-------0-------0-------0-------0-------0-------0-------0------|
D|-----3-------3-------3-------2-------2-------2-------2-------3----|
A|------------------------------------------------------------------|
E|-3-------3-------3-------3-------3-------3-------3-------3--------|

Grassy still late after
e|------------------------------------------------------------------|
B|-------9-------9-------9-------9-------8-------8-------8-------8--|
G|---0-------0-------0-------0-------0-------0-------0-------0------|
D|-----6-------6-------6-------6-------5-------5-------5-------5----|
A|------------------------------------------------------------------|
E|-8-------8-------8-------8-------7-------7-------6-------6--------|

Noon
e|------------------------------------------------------------------|
B|------------------------------------------------------------------|
G|-------5-------5-------5---------------5-------5-------5----------|
D|---6-------6-------6---------------6-------6-------6--------------|
A|-----6-------6-------6-------6-------6-------6-------6-------6----|
E|-4-------4-------4-------4-------4-------4-------4-------4--------|

Saw your face swimming in the
e|------------------------------------------------------------------|
B|-------9-------9-------9-------9-------8-------8-------8-------8--|
G|---0-------0-------0-------0-------0-------0-------0-------0------|
D|-----6-------6-------6-------6-------5-------5-------5-------5----|
A|------------------------------------------------------------------|
E|-8-------8-------8-------8-------7-------7-------6-------6--------|

Blue
e|------------------------------------------------------------------|
B|------------------------------------------------------------------|
G|-------5-------5-------5---------------5-------5-------5----------|
D|---6-------6-------6---------------6-------6-------6--------------|
A|-----6-------6-------6-------6-------6-------6-------6-------6----|
E|-4-------4-------4-------4-------4-------4-------4-------4--------|

Ill lie around for an 
e|------------------------------------------------------------------|
B|------------------------------------------------------------------|
G|-------3-------3-------3---------------3-------3-------3----------|
D|---3-------3-------3---------------3-------3-------3--------------|
A|-----4-------4-------4-------4-------4-------4-------4-------4----|
E|-3-------3-------3-------3-------3-------3-------3-------3--------|

Hour or two
e|------------------------------------------------------------------|
B|------------------------------------------------------------------|
G|-------2-------2-------2---------------2-------2-------2----------|
D|---3-------3-------3---------------3-------3-------3--------------|
A|-----3-------3-------3-------3-------3-------3-------3-------3----|
E|-1-------1-------1-------1-------1-------1-------1-------1--------|

Watch us kids playing 
e|-0-0-0-0-0-0--0-0-0-0-0-0--0-0-0-0-0-0--8-8-8-8-8-8---------------|
B|-1-1-1-1-1-1--1-1-1-1-1-1--0-0-0-0-0-0--8-8-8-8-8-8---------------|
G|-2-2-2-2-2-2--2-2-2-2-2-2--1-1-1-1-1-1--8-8-8-8-8-8---------------|
D|-2-2-2-2-2-2--2-2-2-2-2-2--2-2-2-2-2-2--5-5-5-5-5-5---------------|
A|-3-3-3-3-3-3--3-3-3-3-3-3--2-2-2-2-2-2--6-6-6-6-6-6---------------|
E|-0-0-0-0-0-0--0-0-0-0-0-0--0-0-0-0-0-0----------------------------|
   D D U U D U  D D U U D U  D D U U D U  D D U U D U

Our parts
e|------------------------------------------------------------------|
B|------------------------------------------------------------------|
G|-------5-------5-------5---------------5-------5-------5----------|
D|---6-------6-------6---------------6-------6-------6--------------|
A|-----6-------6-------6-------6-------6-------6-------6-------6----|
E|-4-------4-------4-------4-------4-------4-------4-------4--------|

Dropping our lies like a
e|------------------------------------------------------------------|
B|------------------------------------------------------------------|
G|-------3-------3-------3---------------3-------3-------3----------|
D|---3-------3-------3---------------3-------3-------3--------------|
A|-----4-------4-------4-------4-------4-------4-------4-------4----|
E|-3-------3-------3-------3-------3-------3-------3-------3--------|

Gospel tale
e|------------------------------------------------------------------|
B|------------------------------------------------------------------|
G|-------2-------2-------2---------------2-------2-------2----------|
D|---3-------3-------3---------------3-------3-------3--------------|
A|-----3-------3-------3-------3-------3-------3-------3-------3----|
E|-1-------1-------1-------1-------1-------1-------1-------1--------|

e|-4-4-4-4-4-4-4-4-4-4-4-4-|
B|-4-4-4-4-4-4-6-4-6-4-4-4-|
G|-5-5-5-5-5-5-5-5-5-5-5-5-|
D|-6-6-6-6-4-4-4-4-4-4-4-4-|
A|-6-6-6-6-6-6-6-6-6-6-6-6-|
E|-4-4-4-4-4-4-4-4-4-4-4-4-|
   D U D U U D U U U U D U

Running all 
e|-3-3-3-3-3-3-|
B|-3-3-3-3-3-3-|
G|-5-5-5-5-5-5-|
D|-5-5-5-5-5-5-|        x4
A|-6-6-6-6-6-6-|
E|-3-3-3-3-3-3-|
   D D U U D U

Around 
e|-4-4-4-4-4-4-4-4-4-4-4-4-|
B|-4-4-4-4-4-4-6-4-6-4-4-4-|
G|-5-5-5-5-5-5-5-5-5-5-5-5-|
D|-6-6-6-6-4-4-4-4-4-4-4-4-|
A|-6-6-6-6-6-6-6-6-6-6-6-6-|
E|-4-4-4-4-4-4-4-4-4-4-4-4-|
   D U D U U D U U U U D U

Running all 
e|-3-3-3-3-3-3-|
B|-3-3-3-3-3-3-|
G|-5-5-5-5-5-5-|
D|-5-5-5-5-5-5-|        x4
A|-6-6-6-6-6-6-|
E|-3-3-3-3-3-3-|
   D D U U D U

Around 
e|-1-1-1-1-1-1-|
B|-1-1-1-1-1-1-|
G|-2-2-2-2-2-2-|
D|-3-3-3-3-3-3-|        x4
A|-3-3-3-3-3-3-|
E|-1-1-1-1-1-1-|
   D D U U D U

e|------------------------------------------------------------------|
B|-------8--------8-------8-------7-------6-------6-------6-------3-|
G|---0--------0-------0-------0-------0-------0-------0-------0-----|
D|-----6--------6-------6-------5-------3-------3-------3-------3---|
A|------------------------------------------------------------------|
E|-3-------3--------3-------3-------3-------3-------3-------3-------|

e|------------------------------------------------------------------|
B|-------3-------3-------3-------3-------3-------3-------3-------3--|
G|---0-------0-------0-------0-------0-------0-------0-------0------|
D|-----3-------3-------3-------2-------2-------2-------2-------3----|
A|------------------------------------------------------------------|
E|-3-------3-------3-------3-------3-------3-------3-------3--------|

e|------------------------------------------------------------------|
B|-------8--------8-------8-------7-------6-------6-------6-------3-|
G|---0--------0-------0-------0-------0-------0-------0-------0-----|
D|-----6--------6-------6-------5-------3-------3-------3-------3---|
A|------------------------------------------------------------------|
E|-3-------3--------3-------3-------3-------3-------3-------3-------|

e|------------------------------------------------------------------|
B|-------3-------3-------3-------3-------3-------3-------3-------3--|
G|---0-------0-------0-------0-------0-------0-------0-------0------|
D|-----3-------3-------3-------2-------2-------2-------2-------3----|
A|------------------------------------------------------------------|
E|-3-------3-------3-------3-------3-------3-------3-------3--------|
Добавлено: 18.06.2012
Другие материалы по этой песне:
  • Аккорды и текст

Страница создана 18.06.2012
http://primanota.ru/department-of-eagles/around-the-bay-chords.htm
Привет, Гость.
Предлагаем пройти революционный курс по гитаре.
Подарок от PrimaNota.Ru, забирай!