PrimaNota.ru - самый крупный в мире бесплатный архив песенных текстов, аккордов, табулатур и нот


Depapepe - Start - таба, видео

Регистрация Запомнить меня
Войти через:  Facebook Google Twitter Vk Yandex Mail.ru

Depapepe - Start - таба, видео

Печатать
Просмотров: 494
h = Hammer
/ = slide


INTRO #1 :
Guitar 1:

E|----12---9---------9------|------|----12---9---------9----|
B|--------------12-------12-|------|--------------12--------|
G|--9----9----9----9---9----|--3X--|--9----9----9----9------|
D|--------------------------|------|------------------------|
A|--------------------------|------|------------------------|
E|--------------------------|------|------------------------|
Guitar 2:

E|----12--------------------|------|----12------------------|
B|---------10----9---10--10-|------|---------10----9---10---|
G|--9----9----9----9---9----|--3X--|--9----9----9----9------|
D|--------------------------|------|------------------------|
A|--------------------------|------|------------------------|
E|--------------------------|------|------------------------|

INTRO #2 :

     A      D5      E      D5
E|---0---|---0---|-------|---0---|---|
B|---2---|---3---|---0---|---3---|---|
G|---2---|---2---|---1---|---2---|4X-|
D|---2---|---0---|---2---|---0---|---|
A|---0---|-------|---2---|-------|---|
E|-------|-------|---0---|-------|---|

VERSE :

Rythim :

     A     C#m7    F#      F#7     Bm      Bm7     D        E
E|---0---|---4---|---2---|---2---|---2---|---2---|---2---|-------|
B|---2---|---5---|---2---|---2---|---3---|---3---|---3---|---0---|
G|---2---|---4---|---3---|---3---|---4---|---2---|---2---|---1---|
D|---2---|---6---|---4---|---2---|---4---|---4---|---0---|---2---|
A|---0---|---4---|---4---|---4---|---2---|---2---|-------|---2---|
E|-------|-------|---2---|---2---|-------|-------|-------|---0---|

  Asus2   C#m7    F#      F#7     Bm7     E       Asus2
E|---0---|---4---|---2---|---2---|---2---|-------|---0-----------|
B|---1---|---5---|---2---|---2---|---3---|---0---|---0-----------|
G|---2---|---4---|---3---|---3---|---2---|---1---|---2-----------|
D|---2---|---6---|---4---|---2---|---4---|---2---|---2-----------|
A|---0---|---4---|---4---|---4---|---2---|---2---|---0-----------|
E|-------|-------|---2---|---2---|-------|---0---|---------------|


Lead :

E|------------------|------------------|------------------------|
B|------------------|------------------|------------------------|
G|------2--4-4/6-6--|------2--4-4/6-6--|------2--4-4/6-6--4--3--|
D|--2-2-------------|--2-2-------------|--2-2-------------------|
A|------------------|------------------|------------------------|
E|------------------|------------------|------------------------|


E|------------------|------------------|-----------------------|
B|------------------|------------------|-----------------------|
G|----4-6-6-6/7-7---|----4-6-6-6/7-7---|----4-6-6-6/7-7--6--4--|
D|--4---------------|--4---------------|--4--------------------|
A|------------------|------------------|-----------------------|
E|------------------|------------------|-----------------------|


E|------------------|-------------------|-------------------------------|
B|------------------|-------------------|------------------5-5-5-3--2---|
G|------2--4-4/6-6--|------2--4-4/6--6--|------2--4-4/6-6---------------|
D|--2-2-------------|--2-2--------------|--2-2--------------------------|
A|------------------|-------------------|-------------------------------|
E|------------------|-------------------|-------------------------------|


E|-------------------------------------------|
B|--3-3/5-5-5--3--2--0-----------------------|
G|----------------------2--1--1-1-2-2/4-2----|
D|-------------------------------------------|
A|-------------------------------------------|
E|-------------------------------------------|

PRE-CHORUS :

Rythim :

   D        E     C#m7    F#7     D        E       A
E|---2---|-------|---4---|---2---|---2---|-------|--------------|
B|---3---|---0---|---5---|---2---|---3---|---0---|---2----------|
G|---2---|---1---|---4---|---3---|---2---|---1---|---2----------|
D|---0---|---2---|---6---|---2---|---0---|---2---|---2----------|
A|-------|---2---|---4---|---4---|-------|---2---|---0----------|
E|-------|---0---|-------|---2---|-------|---0---|--------------|

Lead :

E|---7---7-7-7-5-4--5--5/7-7-7/9-9-9-9-9--|
B|---x---x-x-x-x-x--x------x---x-x-x-x-x--|
G|---7---7-7-7-5-4--5--5/7-7-7/9-9-9-9-9--|
D|---x---x-x-x-x-x--x------x---x-x-x-x-x--|
A|----------------------------------------|
E|----------------------------------------|

E|--9-10--12-14--12-10--9-9-9--10-9-7--5-4---4--5-5/7-5---|
B|--------------------------------------------------------|
G|--9-10--12-14--12-10--9-9-9--10-9-7--5-4---4--5-5-7-5---|
D|--------------------------------------------------------|
A|--------------------------------------------------------|
E|--------------------------------------------------------|


there's still work to be done in this tab :D
Добавлено: 02.05.2012
Другие материалы по этой песне:

Страница создана 20.04.2012
http://primanota.ru/depapepe/start-chords.htm
Привет, Гость.
Предлагаем пройти революционный курс по гитаре.
Подарок от PrimaNota.Ru, забирай!