PrimaNota.ru - самый крупный в мире бесплатный архив песенных текстов, аккордов, табулатур и нот


Depapepe - Kitto Mata Itsuka - таба, видео

Регистрация Запомнить меня
Войти через:  Facebook Google Twitter Vk Yandex Mail.ru

Depapepe - Kitto Mata Itsuka - таба, видео

Печатать
Просмотров: 125
Уроки эстрадного вокала в Санкт-Петербурге
Author/Artist: depapepe
Title: kitto mata itsuka
Transcribed by: foil dunedin
-|----------------------------------------------------------|-----------------|
-|----------------------------------------------------------|-----------------|
-|--------11-13-14-13--14-13h14p11-------11-13-14-13-11-----|-----------------|
-|-----14--------------------------14-14----------------14--|-----------------|
-|--14------------------------------------------------------|-----------------|
-|----------------------------------------------------------|-x2--------------|


------------------------------------------------------------------------------|
------------------------------------------------------------------------------|
--------------------------------------------------11--------------------------|
-------------------14--14--14-13-14-13----/11--11----14-13-14--------11--11---|
-11-11-11-11-12-14---------------------14---------------------14--14----------|
------------------------------------------------------------------------------|


------------------------------------------------------------------------------|
------------------------------------------------------------------------------|
------------------------------------------------------------------------------|
-13-14-13-11----14-13-11------------------------------------------------14----|
-------------14----------14-12--12-12-12-11-12-14-----11-11-11-11-12-14-------|
------------------------------------------------------------------------------|


------------------------------------------------------------------------------|
------------------------------------------------------------------------------|
---------------------------11-------------------------------------------------|
-14--14-13-14-13----/11-11----14-13-14--------11--11-13-14-13-11----14-13-11--|
-----------------14--------------------14--14--------------------14-----------|
------------------------------------------------------------------------------|


---------------------------------------------------------12^-----19^----------|
-------------------------------------------------------------12^-----19^------|
------------------------------------------------------------------------------|
------------------------13h14-13-13h14-14-11-14--16--18-----------------------|
-14-12--12-11-----------------------------------------------------------------|
--------------14-12-----------------------------------------------------------|


------------------------------------------------------------------------------|
---------------------------------------------------------------------12-------|
--------------------------------------------------------11--11-13-14----------|
-13h14-13-13h14-14-11-14-16/18\16-14--14-14-14-11-13-14-----------------------|
------------------------------------------------------------------------------|
------------------------------------------------------------------------------|


--------------------------11-12--12-11-12-11----------------------14-12-11----|
-------12-12h14-12--12-14--------------------12-12h14---12-14--14-------------|
-13-13------------------------------------------------------------------------|
------------------------------------------------------------------------------|
------------------------------------------------------------------------------|
------------------------------------------------------------------------------|


-------12-11------------------------------------------------------------------|
-14-12-------14-12--------------10h12------------12--------12-12h14-12--12-14-|
-------------------14--14-13-14---------11-13-14-----13-13--------------------|
------------------------------------------------------------------------------|
------------------------------------------------------------------------------|
------------------------------------------------------------------------------|


-11-12-12-13-14-16----17-16-16-14-14--17-17-16-17-16-14-------11-16-14-12-----|
-------------------17-----------------------------------12-14-----------------|
------------------------------------------------------------------------------|
------------------------------------------------------------------------------|
------------------------------------------------------------------------------|
------------------------------------------------------------------------------|


----11-12--12-14-12-11-12-----------------------------------------------------|
-14---------------------------------------------------------------------------|
------------------------------------------------------------------------------|
------------------------------------------------------------------------------|
------------------------------------------------------------------------------|
------------------------------------------------------------------------------|
Добавлено: 03.06.2012
Другие материалы по этой песне:

Страница создана 20.03.2012
http://primanota.ru/depapepe/kitto-mata-itsuka-chords.htm
Привет, Гость.
Предлагаем пройти революционный курс по гитаре.
Подарок от PrimaNota.Ru, забирай!