PrimaNota.ru - самый крупный в мире бесплатный архив песенных текстов, аккордов, табулатур и нот


Deorro - Five Hours - таба, бас-таба, видео

Регистрация Запомнить меня
Войти через:  Facebook Google Twitter Vk Yandex Mail.ru

Deorro - Five Hours - таба, бас-таба, видео

Печатать
Просмотров: 179
Уроки эстрадного вокала в Санкт-Петербурге
-------------------------------------------------------------------------------
                             Five Hours - Deorro
-------------------------------------------------------------------------------
Tabbed by: Jacob Aldridge
E-mail:

Tuning:Standard 

e|---------------------------------------------------------------------------|
B|---------------------------------------------------------------------------|
G|-------8----7----------------8----7-------------7---5----------------------|
D|--5-5----5----5--8--5---5-5----5-----5-7-8--8-8---8---8-7-8----------------|
A|---------------------------------------------------------------------------|
E|---------------------------------------------------------------------------|
                                                                                 x2
e|---------------------------------------------------------------------------|
B|---------------------------------------------------------------------------|
G|-----5---7-5---------------------------------------------------------------|
D|-8-8---8-----8-5-----------------------------------------------------------|
A|---------------------------------------------------------------------------|
E|---------------------------------------------------------------------------|
 (Easier version, different key)
e|---------------------------------------------------------------------------|
B|---------------------------------------------------------------------------|
G|-----3---2------------3---2------------2---0------------0---2-0------------|
D|-0-0---0---0-3-0--0-0---0---0-2-3--3-3---3---3-2-3--3-3---3-----3-0--------|
A|---------------------------------------------------------------------------|
E|---------------------------------------------------------------------------|



************************************

| /   slide up
| \   slide down
| h   hammer-on
| p   pull-off
| ~   vibrato
| +   harmonic
| x   Mute note
| b   Bend
| pb  Pre-bend
| br  Bend release
| pbr Pre-bend release
| brb Bend release bend

************************************
Добавлено: 07.04.2016
Другие материалы по этой песне:
  • Аккорды и текст

Страница создана 12.10.2014
http://primanota.ru/deorro/five-hours-chords.htm
Привет, Гость.
Предлагаем пройти революционный курс по гитаре.
Подарок от PrimaNota.Ru, забирай!