PrimaNota.ru - самый крупный в мире бесплатный архив песенных текстов, аккордов, табулатур и нот


Deny - Un Año Más - аккорды и текст, таба, видео

Регистрация Запомнить меня
Войти через:  Facebook Google Twitter Vk Yandex Mail.ru

Deny - Un Año Más - аккорды и текст, таба, видео

Печатать
Просмотров: 93
Un Año Más
Deny
Capo 3-

Acordes:
G:320033
C:032033
Am:002233
Em:022033

Intro:

E/--3-----------------------------------------------------------------|
B/-----3-------------3----------------------3------3------------------|  Repite 2 veces
G/--------2(slide)4-----2--0--0--2(slide)4-----2--0---2-0--2(bend)--0-|
D/--------------------------------------------------------------------|
A/--------------------------------------------------------------------|
E/--------------------------------------------------------------------|


Em          G
Un año más, un año más,
   Am
cierro mis ojos al recordar,
Em                 G
que es hoy el día en que,
     Am
el mar quema mi piel

Em               G
Destruyo puentes y alzo paredes,
 Am
reconstruyo el tiempo que perdí,
Em      G         Am
atado a vos, ahogandome en tu mar

C                Am
Todo lo que soy, lo que siempre seré,
Em                 G
el tiempo no lo va a cambiar,
C                 Am
descubrí que en la oscuridad,
Em               G
tu ausencia brilla más.

Em     G           Am
Que puedo decir, cuando no hay nada más que hablar,
Em         G              Am
nuestros caminos se cruzaron para nunca regresar,
Em             G              Am
y cuando encuentres tu verdad, tu feliz mediocridad
Em         G    Am
ya no voy a estar.

Intro

Em          G
Un año más, un año más,
  Am
abro mis brazos al recordar,
Em              G
que es hoy el día en que,
Am
desaté mis pies.

Em               G
Destruyo puentes y alzo paredes,
 Am
reconstruyo el tiempo que perdí,
Em      G         Am
atado a vos, ahogandome en tu mar

C                Am
Todo lo que soy, lo que siempre seré,
Em                 G
el tiempo no lo va a cambiar,
C                 Am
descubrí que en la oscuridad,
Em               G
tu ausencia brilla más.

Em     G           Am
Que puedo decir, cuando no hay nada más que hablar,
Em         G              Am
nuestros caminos se cruzaron para nunca regresar,
Em             G              Am
y cuando encuentres tu verdad, tu feliz mediocridad
Em         G    Am
ya no voy a estar.

Solo
E/------------------------3--2---------------------------------|
B/----------------------3-------3------------------------------|
G/-----------0--------4-------------2--0---------------------0-|
D/-------------1--0---------------------------4(bend)--0--2----|
A/-2-2-0-2-----------------------------------------------------|
E/-------------------------------------------------------------|

E/------------------------3--2-------5(slide)7--3--2(bend)---|
B/----------------------3-------3----------------------------|
G/---------0---------4---------------------------------------|
D/-------------1--0------------------------------------------|
A/-2-2-0-2---------------------------------------------------|
E/-----------------------------------------------------------|

E/------------------------3--2---------------------------------|
B/----------------------3-------3------------------------------|
G/-----------0--------4-------------2--0---------------------0-|
D/-------------1--0---------------------------4(bend)--0--2----|
A/-2-2-0-2-----------------------------------------------------|
E/-------------------------------------------------------------|

E/------------------------3--2-------5(slide)7--3--2(bend)---| *SIGUE ABAJO APARTE
B/----------------------3-------3----------------------------|
G/---------0---------4---------------------------------------|
D/-------------1--0------------------------------------------|
A/-2-2-0-2---------------------------------------------------|
E/-----------------------------------------------------------|

*E/---5--7--3--5--2(bend)----5(x3)--7(x3)--10(x6)

C                Am
Todo lo que soy, lo que siempre seré,
Em                 G
el tiempo no lo va a cambiar,
C                 Am
descubrí que en la oscuridad,
Em               G
tu ausencia brilla más.

Em                         G                  Am
Cuando encuentres tu verdad, ya no voy a estar.
Em                         G                  Am
Cuando encuentres tu verdad, ya no voy a estar.

Em     G           Am
Que puedo decir, cuando no hay nada más que hablar,
Em         G
nuestros caminos se cruzaron
Добавлено: 22.10.2015
Другие материалы по этой песне:
  • Аккорды и текст

Страница создана 12.08.2015
http://primanota.ru/deny/un-ano-mas-chords.htm
Привет, Гость.
Предлагаем пройти революционный курс по гитаре.
Подарок от PrimaNota.Ru, забирай!