PrimaNota.ru - самый крупный в мире бесплатный архив песенных текстов, аккордов, табулатур и нот


Deny - Si Pudiera Salvarte - таба, видео

Регистрация Запомнить меня
Войти через:  Facebook Google Twitter Vk Yandex Mail.ru

Deny - Si Pudiera Salvarte - таба, видео

Печатать
Просмотров: 77
Уроки эстрадного вокала в Санкт-Петербурге
Guitarra 1 (Mate) Audio del auricular Derecho

/----------------------------------------------|
/----------------------------------------------|
/-9-10--17--14---14/15/14--12--10-14-14/15-14--|
/----------------------------------------------|
/-7-8---15--12---12/13/12--10--8-12--12/13/12--|
/----------------------------------------------|

/------------------------------------------------|
/------------------------------------------------|
/-9-10--17--14---14/15/14--12--10-9--9/-10-/9----|
/------------------------------------------------|
/-7-8---15--12---12/13/12--10--8--7--7/-8-/-7----|
/------------------------------------------------|

/---------------------------------------|
/---------------------------------------|
/---------------------------------------|
/---------------------------------------| X4
/---------------------------------------|
/---0-0--8--0-0-5-----------------------|

/---------8---------------------------------------------------------10---------------------------------|
/--6-----------------------------------------13--------------------------------11--10------------------|
/----9--------9------------10-9-----10-9-10------------10-9----9-10----9-------------------------------|
/------10-------10--------------------------------------------------------10-12------------------------|
/------------------------------------------------------------------------------------------------------|
/----------------------0-0------0-0--------------0-0---------------------------------------------------|

/---------------------------------------------------10-------------------------|
/--------------------------13------------------------------------------11--10--|
/---10-9----------10-9-10-------------10-9-----9-10----9-----------------------|
/--------------------------------------------------------------10-12-----------|
/------------------------------------------------------------------------------|
/------------0-0-------------0-0-----------------------------------------------|

/--------------------------------------------------------|
/--------------------------------------------------------|
/--------------------------------------------------------|
/--------------------------------------- ----------------|
/--------------------------------------------------------|
/---0-0-0-0---0-0-0-0---0-0-0-0--8-8-8-5-5-5-------------|

/-----------------------------------------------|
/-----------------------------------------------|
/-----------------------------------10----------|
/-----------------------------------------------|
/-----------------------------------8-----------|
/---0-0-0-0---0-0-0-0---0-0-0-0-----------------|

/-8-----8----------------------------8----8----12---------------------|
/-10----8-----6----------------------10---8----10---------------------|
/-10----10----9----9---10--17--14----10---10---10---9-10--17--14------|
/---------------------------------------------------------------------|
/------------------7---8---15--12-------------------7--8--15--12------|
/---------------------------------------------------------------------|

/-------------------------------------------------------------------------------------------------------------|
/-------------------------------------------------------------------------------------------------------------|
/------------10------9---------------------7-6--------------10-------9-------10-------9-9-9-9-9-9-------------|
/-------------------------------------------------------------------------------------------------------------|
/------------8-------7--------------------------------------8--------7-------8--------7-7-7-7-7-7-------------|
/--0-0-8-0-0----0-0------0-0-8-0-0-0-0-7-0-------0-0-8-0-0-----0-0-0---0-0-0----0-0-0-------------------------|

/----------------------------------------------------------------------------------------------------|
/----------------------------------------------------------------------------------------------------|
/---10--10/12--14/12--17/14-------------------10-10-9-9-9--------------------------------------------|
/-----------------------------X2---8--8--8--8-------------10-10-10-10-12-10----10-------------3--3---|
/---8---8/10---12/10--15/12--------8--8--8--8-------------------------------12----12-8--------3--3---|
/----------------------------------8--8--8--8-------------------------------------------------3--3---|

/-----------------------------------------------------|
/-----------------------------------------------------|
/--9/10-12--9------17/19-----9/10--12---9----3---9/10-|
/-----------------------------------------------------|
/--7/8--10--7------15/17-----7/8---10---7----1---7/8--|
/-----------------------------------------------------|

/-8-----8----------------------------8----8----12---------------------|
/-10----8-----6----------------------10---8----10---------------------|
/-10----10----9----9---10--17--14----10---10---10---9-10--17--14------|
/---------------------------------------------------------------------|
/------------------7---8---15--12-------------------7--8--15--12------|
/---------------------------------------------------------------------|

/---------------------------------------------------|
/-------------------------------------------13------|
/-10-------9-------9/10-10-------------9/10----10---| X8
/----10-10---10-10---------10-10-10-10--------------|
/---------------------------------------------------|
/---------------------------------------------------|

  A.H
/--7------------------------------------------------|
/----7----------------------------------------------|
/------7----------------10--------------------------|
/---------------------------------------------------|
/-----------------------8---------------------------|
/-----------0-0-0-8-0-0-----------------------------|
Добавлено: 22.10.2015
Другие материалы по этой песне:
  • Аккорды и текст

Страница создана 22.10.2015
http://primanota.ru/deny/si-pudiera-salvarte-chords.htm
Привет, Гость.
Предлагаем пройти революционный курс по гитаре.
Подарок от PrimaNota.Ru, забирай!