PrimaNota.ru - самый крупный в мире бесплатный архив песенных текстов, аккордов, табулатур и нот


Denver Harbor - Let You Go - текст песни, таба, видео

Регистрация Запомнить меня
Войти через:  Facebook Google Twitter Vk Yandex Mail.ru

Denver Harbor - Let You Go - текст песни, таба, видео

Печатать
Просмотров: 130
After much extensize searching and finding no tabs for "Let You Go", I decided to 
make one.  Don't email me angrily telling me there's a small error - copy and 
paste it into word, fix it and print it.  How hard is it?  Any constructive or 
positive feedback would be appriciated however.  If there is a part that you think 
is better the way you play it, please email me at cowsrgreat@hotmail.com.  Play and enjoy!

Guitar 2 is tuned 1/2 step down (Eb, Ab, Db, Gb, Bb, eb) but Guitar 1 is regular/
standard (E,A,D,G,B,e)

Verse 1
Guitar 1 - Clean
(“Hello, how are you…”)
e|---------------------------------|      \         \
B|---------------------------------|      |         |
G|---------------------------------|   x2 |         |
D|---------------------------------|      |         |
A|-9-9-9-9-9-9-9-9-6-6-6-6-6-6-6-6-|      |         |
E|-7-6-9-7-6-9-7-6-4-4-4-4-4-4-4-4-|      |         |
                                          |   x2    |
(“Let me start by saying…”)               |         |
e|---------------------------------|      |         |
B|---------------------------------|      |         |
G|---------------------------------|   x1 |         |
D|---------------------------------|      |         |  Intro/Verse
A|-2-2-2-2-2-2-2-2-4-4-4-4-4-4-4-4-|      |         |
E|-0-0-0-0-0-0-0-0-2-2-2-2-2-2-2-2-|      /         |
                                                    |
e|---------------------------------|                |
B|---------------------------------|                | 
G|---------------------------------|   x1           |
D|---------------------------------|                |
A|-9-9-9-9-9-9-9-9-6-6-6-6-6-6-6-6-|                |
E|-7-6-9-7-6-9-7-6-4-4-4-4-4-4-4-4-|                /

Guitar 2 harmonics (start at second half of first verse. Not in chorus)
Low Distortion
e|-----5~--|
B|---------|
G|-5~------|  x4
D|---------|
A|---------|
E|---------|

Chorus
Guitar1 - Clean
e|-----------------------------------------------------------------| \
B|-----------------------------------------------------------------| |
G|-----------------------------------------------------------------| |
D|-----------------------------------------------------------------| |
A|-2-2-2-2-2-2-2-2-4-4-4-4-4-4-4-4-9-9-9-9-9-9-9-9-6-6-6-6-6-6-6-6-| |
E|-0-0-0-0-0-0-0-0-2-2-2-2-2-2-2-2-7-7-7-7-6-6-6-6-4-4-4-4-4-4-4-4-| |
                                                                     |
                                        e|-------------------------| |
                                        B|-------------------------| |
                                        G|-------------------------| |
                                        D|-------------------------| |
                                        A|-2-2-2-2-2-2-2-2--5~--4~-| |
                                        E|-0-0-0-0-0-0-0-0--3~--2~-| /
-----------------------------------------------------------------------
Guitar2 - Clean
e|-8------8------12-----10----8----------8----11--10-8-|
B|---10-----10------13----12----10-----10--------------|
G|-----------------------------------10----------------|
D|-----------------------------------------------------|
A|-----------------------------------------------------|
E|-----------------------------------------------------|

After Chorus

Guitar1 - Clean
e|-------------------------|
B|-------------------------|
G|-------------------------|
D|-------------------------|
A|-9-9-9-9-9-9-9-9-6-6-6-6-|
E|-7-6-9-7-6-9-7-6-4-4-4-4-|

Guitar2 – Low Distortion
Harmonics
e|-----5~--|
B|---------|
G|-5~------|  x2
D|---------|
A|---------|
E|---------|

Verse 2
Guitar 1 – Medium Distortion
(“Here's my shot at redemption…”)
e|---------------------------------|      \         \
B|---------------------------------|      |         |
G|---------------------------------|   x2 |         |
D|---------------------------------|      |         |
A|-9-9-9-9-9-9-9-9-6-6-6-6-6-6-6-6-|      |         |
E|-7-6-9-7-6-9-7-6-4-4-4-4-4-4-4-4-|      |         |
                                          |   x2    |
(“You know if I could…”)                  |         |
e|---------------------------------|      |         |
B|---------------------------------|      |         |
G|---------------------------------|   x1 |         |
D|---------------------------------|      |         |Verse
A|-2-2-2-2-2-2-2-2-4-4-4-4-4-4-4-4-|      |         |
E|-0-0-0-0-0-0-0-0-2-2-2-2-2-2-2-2-|      /         |
                                                    |
e|---------------------------------|                |
B|---------------------------------|                | 
G|---------------------------------|   x1           |
D|---------------------------------|                |
A|-9-9-9-9-9-9-9-9-6-6-6-6-6-6-6-6-|                |
E|-7-6-9-7-6-9-7-6-4-4-4-4-4-4-4-4-|                /

Chorus 2 - Part 1
Guitar1 – Medium-High Distortion
e|-----------------------------------------------------------------| \
B|-----------------------------------------------------------------| |
G|-----------------------------------------------------------------| |
D|-----------------------------------------------------------------| |
A|-2-2-2-2-2-2-2-2-4-4-4-4-4-4-4-4-9-9-9-9-9-9-9-9-6-6-6-6-6-6-6-6-| |
E|-0-0-0-0-0-0-0-0-2-2-2-2-2-2-2-2-7-7-7-7-6-6-6-6-4-4-4-4-4-4-4-4-| |
                                                                     |
                                        e|-------------------------| |
                                        B|-------------------------| |
                                        G|-------------------------| |
                                        D|-------------------------| |
                                        A|-2-2-2-2-2-2-2-2--5~--4~-| |
                                        E|-0-0-0-0-0-0-0-0--3~--2~-| /

Chorus 2 – Part 2
Guitar1 – Medium-High Distortion
e|--------------------------------------|
B|--------------------------------------|
G|--------------------------------------|  x4
D|--------------------------------------|
A|-9-9-9-99-9-9-9-99-6-6-6-66-66-6-6-66-|
E|-7-7-7-77-6-6-6-66-4-4-4-44-44-4-4-44-|

Chorus 2 - Part 3
Guitar1 – Medium-High Distortion
(“And I've gone through...”)
e|-----------------------------------------------------------------| \
B|-----------------------------------------------------------------| |
G|-----------------------------------------------------------------| |
D|-----------------------------------------------------------------| |
A|-2-2-2-2-2-2-2-2-4-4-4-4-4-4-4-4-9-9-9-9-9-9-9-9-6-6-6-6-6-6-6-6-| |
E|-0-0-0-0-0-0-0-0-2-2-2-2-2-2-2-2-7-7-7-7-6-6-6-6-4-4-4-4-4-4-4-4-| |
                                                                     |
(“But I'll never replace my love...”)                                |
e|---------------------------------|                                 |
B|---------------------------------|                                 |
G|---------------------------------|  x2                             |
D|---------------------------------|                                 |
A|-2-2-2-2-2-2-2-2-4-4-4-4-4-4-4-4-|                                 |
E|-0-0-0-0-0-0-0-0-2-2-2-2-2-2-2-2-|                                 |-  (“No matter what I'm 
                                        e|-------------------------| | never gonna let you go”)  |
                                        B|-------------------------| |
                                        G|-------------------------| |
                                        D|-------------------------| |
                                        A|-2-2-2-2-2-2-2-2--5~--4~-| |
                                        E|-0-0-0-0-0-0-0-0--3~--2~-| /

Outro
Guitar1 - Clean
e|-----------------------------------------------------------|
B|-----------------------------------------------------------|
G|-----------------------------------------------------------|
D|-----------------------------------------------------------|
A|-9-9-9-9-9-9-9-9-6-6-6-6-6-6-6-66--9-9-9-9-9-9-9-9-6-6-6-6-|
E|-7-6-9-7-6-9-7-6-4-4-4-4-4-4-4-44--7-6-9-7-6-9-7-6-4-4-4-4-|

Guitar2 – Clean
Hamonics
e|-----5~--|
B|---------|
G|-5~------|  x2
D|---------|
A|---------|
E|---------|
Добавлено: 14.04.2012
Другие материалы по этой песне:
  • Аккорды и текст

Страница создана 01.03.2012
http://primanota.ru/denver-harbor/let-you-go-chords.htm
Привет, Гость.
Предлагаем пройти революционный курс по гитаре.
Подарок от PrimaNota.Ru, забирай!