PrimaNota.ru - самый крупный в мире бесплатный архив песенных текстов, аккордов, табулатур и нот


Denny Cagur - Bang Jali - таба, видео

Регистрация Запомнить меня
Войти через:  Facebook Google Twitter Vk Yandex Mail.ru

Denny Cagur - Bang Jali - таба, видео

Печатать
Просмотров: 35
E:-------------------------1-0--|
B:-0-2-3-0-2-3-0-2-3--------3-2-|
G:------------------------------|
D:------------------------------|
A:------------------------------|
E:------------------------------|

E:------------------0-----0-1-3-0-1-|
B:--2-2-2-2-2-3---2-3---------------|
G:----------------------------------|
D:----------------------------------|
A:----------------------------------|
E:----------------------------------|
Добавлено: 06.08.2015
Вам также может быть интересно:
Другие материалы по этой песне:
  • Аккорды и текст

Страница создана 06.08.2015
http://primanota.ru/denny-cagur/bang-jali-chords.htm
Привет, Гость.
Предлагаем пройти революционный курс по гитаре.
Подарок от PrimaNota.Ru, забирай!