PrimaNota.ru - самый крупный в мире бесплатный архив песенных текстов, аккордов, табулатур и нот


Dennis Brown - No Man Is An Island - текст песни, бас-таба, видео

Регистрация Запомнить меня
Войти через:  Facebook Google Twitter Vk Yandex Mail.ru

Dennis Brown - No Man Is An Island - текст песни, бас-таба, видео

Печатать
Просмотров: 86
-------------------------------------------------------------------------------
                             No man is an island - Dennis Brown
-------------------------------------------------------------------------------
Tabbed by: Ari
E-mail: arizonadream137@hotmail.com

Tuning: standard

Intro:

G|-----------|
D|-----------|
A|-3-3-33333-|
E|-----------|

G|-------------------------------|
D|---33---3---3-----55---5---5---| X2
A|-3----3---3---3-5----5---5---5-|
E|-------------------------------|

Part I:

G|-------------------------------|
D|---33---3---3-----55---5---5---| X3
A|-3----3---3---3-5----5---5---5-|
E|-------------------------------|

G|-------------------------------|
D|------------------33---3---3---|
A|---55---5---3---3----3---3---3-|
E|-5----5---3---3----------------|

Part II:

G|-------------------------------|
D|------------------77---7---7---| X3
A|---55---5---5---7----7---7---7-|
E|-5----5---5---5----------------|

G|-------------------------------|
D|---55---5---5------------------|
A|-5----5---5---5---33---3---3---|
E|----------------3----3---3---3-|

Part III:

G|-------------------------------|
D|---33---3---3-----55---5---5---| X4
A|-3----3---3---3-5----5---5---5-|
E|-------------------------------|


Intro
Part I   X2
Part II  X1
Part I   X1
Part III X1
Part II  X1
Part I   X2



===============================================================================
Добавлено: 02.01.2016
Другие материалы по этой песне:
  • Аккорды и текст

Страница создана 25.09.2014
http://primanota.ru/dennis-brown/no-man-is-an-island-chords.htm
Привет, Гость.
Предлагаем пройти революционный курс по гитаре.
Подарок от PrimaNota.Ru, забирай!