PrimaNota.ru - самый крупный в мире бесплатный архив песенных текстов, аккордов, табулатур и нот


Denison Witmer - Forgiven - таба, видео

Регистрация Запомнить меня
Войти через:  Facebook Google Twitter Vk Yandex Mail.ru

Denison Witmer - Forgiven - таба, видео

Печатать
Просмотров: 72
Artist:  Denison Witmer
Song:    "Forgiven"
Album:   Of Joy and Sorrow
 
Tab by:  lumberjackbill
 
 
 

Capo 5th Fret
 
 
 
Intro
e|-----------------------------------------------
B|-----------------------------------------------
G|-0-----/4-2----------------0-----/4-2----------
D|------------3-----3-2-----------------3----3-2-
A|----3---------3---------------3---------3------
E|-----3---------3---------------3---------3-----
 
 
 
 
 
Verse
 
Repeat 6x
e|-------------------------------
B|-------------------------------
G|-----------------0-------------
D|--2------3---------2----3------
A|----3------3-0------3-----3-0--
E|-----3-------------------------
 
 
 

Chorus
 
Repeat 2x               Repeat 2x
e|---------------------------------------
B|---------------------------------------
G|----0---0--0-0---0-------0---0---0---0-
D|---------------------------------------
A|---3---3--------3-------3---3---3---3--
E|---------------------------------------
 
 
 
 
 
Solo
e|--------------------------------------------------
B|--1----0-0--0-----------1-------------------------
G|---0--0-0-4~-0--------0--0-0---0----0-----0-----0-
D|----------------2--2h3----3-2---------------------
A|---------------------------------3/5---5/7---7\5--
E|--------------------------------------------------
 

Verse
 
Chorus
 
 
 
Intro Again
e|-----------------------------------------------
B|-----------------------------------------------
G|--0-----/4-2----------------0-----/4-2---------
D|------------3-----3-2-----------------3----3-2-
A|----3---------3---------------3---------3------
E|-----3---------3---------------3---------3-----
 

e|-----------------------------------------------
B|-----------------------------------------------
G|--0-----/4-2----------------0-----/5-4---------
D|------------3-----3-2-----------------3----3-2-
A|----3---------3---------------3---------3------
E|-----3---------3---------------3---------3-----
 
Chorus
 

This is my first tab, but I think it's accurate.  Any comments or
corrections, send to lumberjackbill@hotmail.com
 
- Micah
 

     
Добавлено: 12.07.2013
Другие материалы по этой песне:
  • Аккорды и текст

Страница создана 12.07.2013
http://primanota.ru/denison-witmer/forgiven-chords.htm
Привет, Гость.
Предлагаем пройти революционный курс по гитаре.
Подарок от PrimaNota.Ru, забирай!