PrimaNota.ru - самый крупный в мире бесплатный архив песенных текстов, аккордов, табулатур и нот


Denis Leary - Asshole - аккорды и текст, видео

Регистрация Запомнить меня
Войти через:  Facebook Google Twitter Vk Yandex Mail.ru

Denis Leary - Asshole - аккорды и текст, видео

Печатать
Просмотров: 121
Уроки эстрадного вокала в Санкт-Петербурге
Asshole
Denis Leary
---------------------------------------------------------------------
Dennis Leary - Asshole

It may not be completely right because i did it by ear, but it sounds pretty 
damn right to me.
regular tuning and no special techniques needed, its pretty straightforward

--This is the intro, Verses, and choruses throughout the entire song. 
(including the huge pissed off rant)
    D                       D
E---2-22220-00000-00000-00002-22220-00000-00000-0000|
B---3-33333-33333-33333-33333-33333-33333-33333-3333|
G---2-22222-22222-22222-22222-22222-22222-22222-2222|
D---0-00000-00000-00000-00000-00000-00000-00000-0000|
A---------3-33332-22220-0000------3-33332-22220-0000|
E---------------------------------------------------|


--BRIDGE
    Em          A
E---0-0-0-0-0-0-0-0-0-0-0-0|
B---0-0-0-0-0-0-2-2-2-2-2-2|
G---0-0-0-0-0-0-2-2-2-2-2-2|
D---2-2-2-2-2-2-2-2-2-2-2-2|
A---2-2-2-2-2-2-0-0-0-0-0-0|
E---0-0-0-0-0-0------------|


--OUTRO
   D
E--2-320-2---
B--3-----3---
G--2-----2---
D--0-----0---
A------------
E------------


Intro
Verse
chorus
verse
chorus
verse
bridge
Chorus
Big long verse (Pissed off Rant)
Chorus 2
Outro

     
Добавлено: 27.10.2013
Другие материалы по этой песне:

Страница создана 29.02.2012
http://primanota.ru/denis-leary/asshole-chords.htm
Привет, Гость.
Предлагаем пройти революционный курс по гитаре.
Подарок от PrimaNota.Ru, забирай!