PrimaNota.ru - самый крупный в мире бесплатный архив песенных текстов, аккордов, табулатур и нот


Denial Of God - Funeral - таба, видео

Регистрация Запомнить меня
Войти через:  Facebook Google Twitter Vk Yandex Mail.ru

Denial Of God - Funeral - таба, видео

Печатать
Просмотров: 110
Уроки эстрадного вокала в Санкт-Петербурге
Denial of God - "Funeral"
Off of the album "Death and the Beyond"
Transcribed by imspazzen

This tab is pretty vague, but the structure and riffs are so simple that it shouldn't be a problem.
The reason for this is because it's really repetitive and I didn't want to copy and paste each riff 
over and over.

{[Intro]}
   Riff 1                         ______________________________  ______________________________
                                 | 1.                            | 2.
e||------------------------------|------------------------------||-------------------------------|
B||------------------------------|------------------------------||-------------------------------|
G||*-----------------------------|-----------------------------*||-------------------------------|
D||*-----------------------------|-5--5-5-5--5-5-5--5-5-5--5-5-*||-------------------------------|
A||--7--7-7-7--7-7-7--7-7-7--7-7-|-3--3-3-3--3-3-3--3-3-3--3-3--||-6--6-6-6--6-6-6---6-6-6---6-6-|
E||--5--5-5-5--5-5-5--5-5-5--5-5-|------------------------------||-4--4-4-4--4-4-4---4-4-4---4-4-|

  Lead
e|---------|------------|---------|------------|
B|---------|------------|---------|------------|
G|---------|-5~---5~-5-5|---------|------------|
D|-7~----7~|------------|-7~----7~|-6~---6~/---|
A|---------|------------|---------|------------|
E|---------|------------|---------|------------|


then transition:
e|-------------------------------|
B|-------------------------------|
G|-------------------------------|
D|-----------------------5-6-7-8-|
A|-6--6-6-6--6-6-6-7-8-9-3-4-5-6-|
E|-4--4-4-4--4-4-4-5-6-7---------|


{[Verse]}
   Riff 2                         ______________________________  _____________________________
                                 | 1.                            | 2.
e||------------------------------|------------------------------||-----------------------------|
B||------------------------------|------------------------------||-----------------------------|
G||*-----------------------------|-----------------------------*||-----------------------------|
D||*-----------------------------|-5------5--------------------*||-----------------------------|
A||--7------7------7------7------|-3--3-3-3--3---6------6-------||-6------6------6------6------|
E||--5--5-5-5--5-5-5--5-5-5--5-5-|-------------6-4--4-4-4--4-4--||-4--4-4-4--4-4-4--4-4-4--4-4-|
        * *    * *    * *    * *      * *    * *    * *    * *        * *    * *    * *    * *

then transition:
e|-------------------------------|
B|-------------------------------|
G|-------------------------------|
D|-----------------------5-6-7-8-|
A|-6------6------6-7-8-9-3-4-5-6-|
E|-4--4-4-4--4-4-4-5-6-7---------|
      * *    * *

{[Refrain]}
   Riff 3                         ______________________________  ______________________________
                                 | 1.                            | 2.
e||------------------------------|------------------------------||-------------------------------|
B||------------------------------|------------------------------||-------------------------------|
G||*-----------------------------|-----------------------------*||-------------------------------|
D||*-----------------------------|-----------------------------*||-------------------------------|
A||--7--7-7-7--7-7-7--7-7-7--7-7-|-3--3-3-3--3-3-3--3-3-3--3-3--||-6--6-6-6--6-6-6---6-6-6---6-6-|
E||--5--5-5-5--5-5-5--5-5-5--5-5-|-1--1-1-1--1-1-1--1-1-1--1-1--||-4--4-4-4--4-4-4---4-4-4---4-4-|

  Lead                                        __________________________________________  _______
                                             | 1.                                        | 2.
e||------------------------------------------|------------------------------------------||-16----|
B||--17--------------------------------------|-18---------------------------------------||-------|
G||*-----14-14-17--14-14-16--14-14-17--14-14-|-----14-14-17--14-14-16--14-14-17--14-14-*||-------|
D||*-----------------------------------------|-----------------------------------------*||-------|
A||------------------------------------------|------------------------------------------||-------|
E||------------------------------------------|------------------------------------------||-------|
                                              __________________________________________  _______
                                             | 1.                                        | 2.
e||------------------------------------------|------------------------------------------||-------|
B||--17--------------------------------------|-18---------------------------------------||-------|
G||*-----14-14-17--14-14-16--14-14-17--14-14-|-----14-14-17--14-14-16--14-14-17--14-14-*||-13~---|
D||*-----------------------------------------|-----------------------------------------*||-------|
A||------------------------------------------|------------------------------------------||-------|
E||------------------------------------------|------------------------------------------||-------|

(((Repeat Verse)))

(((Repeat Refrain)))
small changes to Lead
                                              __________________________________________  _______
                                             | 1.                                        | 2.
e||------------------------------------------|------------------------------------------||-------|
B||--17--------------------------------------|-18---------------------------------------||-------|
G||*-----14-14-17--14-14-16--14-14-17--14-14-|-----14-14-17--14-14-16--14-14-17--14-14-*||-13----|
D||*-----------------------------------------|-----------------------------------------*||-------|
A||------------------------------------------|------------------------------------------||-------|
E||------------------------------------------|------------------------------------------||-------|
                                              __________________________________________ 
                                             | 1.                                        
e||------------------------------------------|------------------------------------------||
B||--17--------------------------------------|-18---------------------------------------||
G||*-----14-14-17--14-14-16--14-14-17--14-14-|-----14-14-17--14-14-16--14-14-17--14-14-*||
D||*-----------------------------------------|-----------------------------------------*||
A||------------------------------------------|------------------------------------------||
E||------------------------------------------|------------------------------------------||
  ___________________________________
 | 2.
e|-----------------------------------|
B|-----------------------------------|
G|-13-14-13-14-13-14-13-14-13--------|
D|-----------------------------------|
A|-----------------------------------|
E|-----------------------------------|


(((Play Riff 1)))


{[Bass Break]}
e|----------|
B|----------|
G|----------|
D|----------|
A|-7--------|
E|-5--------|

then

e|---------------------------------|
B|---------------------------------|
G|---------------------------------|
D|---------------------------------|
A|-6-6-6-6-6-6-6-6-6-6-6-6-6-6-6-6-|
E|-4-4-4-4-4-4-4-4-4-4-4-4-4-4-4-4-|


{[Solo]}
Rhythm Plays Riff 1 once.
Repeat each tap lick as fast as you can.
   T      T    T    T    T    T
e|-17p5-|-20p8-20p8-22p8-24p8-24p8-|-24s22-20s22-20-19-18-17s15-19s17-16-|-16s18-19-19s23-23~--\-|
B|------|--------------------------|-------------------------------------|-----------------------|
G|------|------------------------ -|-------------------------------------|-----------------------|
D|------|--------------------------|-------------------------------------|-----------------------|
A|------|--------------------------|-------------------------------------|-----------------------|
E|------|--------------------------|-------------------------------------|-----------------------|

(Rhythm plays Riff 2 once.)
e|---------------|----------------------------|--------------------------------|-----14--19-19~--|
B|-/10~-\-5--5-5-|-8*-10-8-7-8-7---7----------|-------17-17-17--17-17-------17-|-16--------------|
G|---------------|---------------9---8~---8-9-|(9)--/-----------------14--x----|-----------------|
D|---------------|----------------------------|--------------------------------|-----------------|
A|---------------|----------------------------|--------------------------------|-----------------|
E|---------------|----------------------------|--------------------------------|-----------------|
             *

(((Repeat Verse)))

(((Repeat Refrain)))
another small change to Lead (this is played twice)
                                              _________________________________________   _______
                                             | 1.                                        | 2.
e||------------------------------------------|------------------------------------------||-------|
B||--17--------------------------------------|-18---------------------------------------||-------|
G||*-----14-14-17--14-14-16--14-14-17--14-14-|-----14-14-17--14-14-16--14-14-17--14-14-*||-13----|
D||*-----------------------------------------|-----------------------------------------*||-------|
A||------------------------------------------|------------------------------------------||-------|
E||------------------------------------------|------------------------------------------||-------|


(((Play Riff 1)))


{[Ending]}                              ____________  _____________________
                                       | 1.          | 2.
e||------------|-----------|-----------|------------||---------------------|----------||
B||------------|-----------|-----------|------------||---------------------|----------||
G||*-----------|-----------|-----------|-----------*||---------------------|----------||
D||*-----------|-5---------|-----------|-----------*||-------------5-6-7-8-|----------||
A||--7------x\-|-3------x/-|-7------x\-|-6------x/--||-6---6-7-8-9-3-4-5-6-|-7--------||
E||--5------x\-|--------x/-|-5------x\-|-4------x/--||-4---4-5-6-7---------|-5--------||
          pick 
         slide
_______________________________

Tab Legend:
~ - vibrato
/ - slide up
\ - slide down
* (below tab) - palm mute
* (next to note) - harmonic
T - tap
p - pull off
s - legato slide
Добавлено: 24.11.2015
Вам также может быть интересно:
Другие материалы по этой песне:
  • Аккорды и текст

Страница создана 24.11.2015
http://primanota.ru/denial-of-god/funeral-chords.htm
Привет, Гость.
Предлагаем пройти революционный курс по гитаре.
Подарок от PrimaNota.Ru, забирай!