PrimaNota.ru - самый крупный в мире бесплатный архив песенных текстов, аккордов, табулатур и нот


Denial Of God - Behind The Coffins Lid - таба, видео

Регистрация Запомнить меня
Войти через:  Facebook Google Twitter Vk Yandex Mail.ru

Denial Of God - Behind The Coffins Lid - таба, видео

Печатать
Просмотров: 50
Denial of God - "Behind the Coffin's Lid"
Off of the album "Death and the Beyond"
Transcribed by imspazzen

{[Intro]}

  Riff 1
e|-----------------|-----------------|-----------------|-----------------|
B|-5"------8"------|---------6"------|---------5"------|-5"--6"--5"------|
G|-------------5"--|-7"----------4"--|-5"--------------|-------------7"--|_______
D|-----------------|-----------------|-----------------|-----------------|      |
A|-----------------|-----------------|-----------------|-----------------|      | 
E|-----------------|-----------------|-----------------|-----------------|      | Play twice
 |                                                                              |
e|-----------------|-----------------|-----------------|-----------------|      |
B|-----------------|-----------------|-----------------|-----------------|______|
G|-5-5-5-5-5-5-5-5-|-----------------|-----------------|-----------------|
D|-5-5-5-5-5-5-5-5-|-5-5-5-5-5-5-5-5-|-7-7-7-7-7-7-7-7-|-3-3-3-3-3-3-3-3-|
A|-3-3-3-3-3-3-3-3-|-5-5-5-5-5-5-5-5-|-7-7-7-7-7-7-7-7-|-3-3-3-3-3-3-3-3-|
E|-----------------|-3-3-3-3-3-3-3-3-|-5-5-5-5-5-5-5-5-|-1-1-1-1-1-1-1-1-|


{[Verse 1]}

  Riff 2                          __________   ________
                                 | 1.         | 2.
e||----------|---------|---------|----------||---------|
B||----------|---------|---------|----------||---------|
G||*---------|---------|---------|---------*||---------|
D||*---------|---------|---------|---------*||---------|
A||--7"------|-5"------|---------|----------||-8"------|
E||----------|---------|-8"------|-5"-------||---------|
 |                                __________  _________
 |                               | 1.        | 2.
e||----------|---------|---------|----------||---------|
B||----------|---------|---------|----------||---------|
G||*---------|---------|---------|---------*||---------|
D||*---------|---------|---------|---------*||---------|
A||--3"------|---------|---------|----------||---------|
E||----------|-3"------|-5"------|-1"-------||-1"------|


(((Play Riff 1 twice)))

{[Verse 2]}
Play Riff 2 twice, but for  e|---------|           e|---------
the last bar of the final   B|---------|   to this B|---------
repeat change this          G|---------|           G|---------
                            D|---------|           D|-7"------
                            A|-8"------|           A|---------
                            E|---------|           E|---------


{[Chorus]}

e|---------------------------|---------------------------|
B|---------------------------|---------------------------|
G|---------2-2---4-5-4---2p0-|-2--2-2-----2----2-2-------|   Play 3 times
D|-3--3-3------------------0-|-2--2-2-----2----2-2-------|
A|-3--3-3--------------------|-0--0-0-----0----0-0-------|
E|-1--1-1--------------------|---------------------12\---|
                                                   |
                                     this is just a general slide

e|---------------------------|---------------------------|
B|---------------------------|---------------------------|
G|---------2-2---4-5-4---2---|-4----------4h5-4----------|
D|-3--3-3--------------------|---------------------------|
A|-3--3-3--------------------|---------------------------|
E|-1--1-1--------------------|---------------------------|


(((Play Riff 1 twice)))


{[Verse 3]}                       __________   ________
                                 | 1.         | 2.
e||----------|---------|---------|----------||---------|
B||----------|---------|---------|----------||---------|
G||*---------|---------|---------|---------*||---------|_______
D||*---------|---------|---------|---------*||---------|       |
A||--7"------|-5"------|---------|----------||-8"------|       |
E||----------|---------|-8"------|-5"-------||---------|       | Play all of this
 |                                __________  _________        |     3 times
 |                               | 1.        | 2.              |
e||----------|---------|---------|----------||---------|       |
B||----------|---------|---------|----------||---------|_______|
G||*---------|---------|---------|---------*||---------|
D||*---------|---------|---------|---------*||---------|
A||--3"------|---------|---------|----------||---------|
E||----------|-3"------|-5"------|-1"-------||-1"------|

and then:                         __________   ________
                                 | 1.         | 2.
e||----------|---------|---------|----------||---------|
B||----------|---------|---------|----------||---------|
G||*---------|---------|---------|---------*||---------|
D||*---------|---------|---------|---------*||-7"------|
A||--7"------|-5"------|---------|----------||---------|
E||----------|---------|-8"------|-5"-------||---------|
 |                                __________  _________
 |                               | 1.        | 2.
e||----------|---------|---------|----------||---------|
B||----------|---------|---------|----------||---------|
G||*---------|---------|---------|---------*||---------|
D||*---------|---------|---------|---------*||---------|
A||--3"------|---------|---------|----------||---------|
E||----------|-3"------|-5"------|-1"-------||-1"------|


(((Repeat Chorus)))


{[Clean Break]}
   
e|---------------|----------|------------------|------------|---------------|
B|-------------5-|-6--------|--------3-----5-3-|-5------5-5-|-------------5-|
G|-2--2-4-5-2----|--------2-|-4--4-5---4-------|------------|-2--2-4-5-2----|
D|---------------|----------|------------------|------------|---------------|
A|---------------|----------|------------------|------------|---------------|
E|---------------|----------|------------------|------------|---------------|
 |
e|-0-------------|-1--------|-3----------------|-0----------|-1-------------|
B|-1-------------|-3--------|-0----------------|-1----------|-1-------------|
G|-2-------------|-2--------|-0----------------|-0----------|-2-------------|
D|-2-------------|-0--------|-0----------------|-2----------|-3-------------|
A|-0-------------|----------|-2----------------|-3----------|-3-------------|
E|---------------|----------|-3----------------|------------|-1-------------|


e|----------|---------------|-----------------|---------------|--------------------|
B|----------|---------------|-----------------|-------------5-|-5-6-5-3-3----3-----|
G|-4------0-|-2----2-4---5--|-4---2---0-------|-2--2-4-5-2----|----------------0-2-|
D|----------|---------------|-------------0---|---------------|--------------------|
A|----------|---------------|-----------------|---------------|--------------------|
E|----------|---------------|-----------------|---------------|--------------------|
 |
e|-0--------|-1-------------|-3---------------|-0-------------|-1------------------|
B|-0--------|-1-------------|-0---------------|-1-------------|-3------------------|
G|-0--------|-2-------------|-0---------------|-2-------------|-2------------------|
D|-2--------|-3-------------|-0---------------|-2-------------|-0------------------|
A|-2--------|-3-------------|-2---------------|-0-------------|--------------------|
E|-0--------|-1-------------|-3---------------|---------------|--------------------|


e|---------------|------------------|---------------|-----------------|-------------|
B|--------3----5-|-5-6-5-3-5----5-5-|-------------5-|-3-5-3-----------|-------------|
G|-4--4-5---4----|------------------|-2--2-4-5-2----|-------5-4---4-0-|-2--2-4---5--|
D|---------------|------------------|---------------|-----------------|-------------|
A|---------------|------------------|---------------|-----------------|-------------|
E|---------------|------------------|---------------|-----------------|-------------|
 |
e|-3-------------|-0----------------|-1-------------|-0---------------|-1-----------|
B|-0-------------|-1----------------|-1-------------|-0---------------|-1-----------|
G|-0-------------|-0----------------|-2-------------|-0---------------|-2-----------|
D|-0-------------|-2----------------|-3-------------|-2---------------|-3-----------|
A|-2-------------|-3----------------|-3-------------|-2---------------|-3-----------|
E|-3-------------|------------------|-1-------------|-0---------------|-1-----------|


w/dist.
e|---------------------------------|
B|---------------------------------|
G|-4-5-4-2-0-2-0-----------2-4-5-4-|
D|---------------4-0-4-4-0---------|
A|---------------------------------|
E|---------------------------------|
 |
e|---------------------------------|
B|---------------------------------|
G|---------------------------------|
D|-5-5-5-5-5-5-5-5-5-5-5-5-5-5-5-5-|
A|-5-5-5-5-5-5-5-5-5-5-5-5-5-5-5-5-|
E|-3-3-3-3-3-3-3-3-3-3-3-3-3-3-3-3-|
   * * * * * * * * * * * * * * * * (light P.M.)


{[Bridge]}
  Rhythm
e||--------------|-------------|-------------|--------------|-------------|--------------|
B||--------------|-------------|-------------|--------------|-------------|--------------|
G||*-------------|-7-------7-7-|-------------|-5------5--5--|-------------|--------------|
D||*-7-------7-7-|-7-------7-7-|-5-------5-5-|-5------5--5--|-3-------3-3-|-2----2-2-2-2-|
A||--7-------7-7-|-5-------5-5-|-5-------5-5-|-3------3--3--|-3-------3-3-|-2----2-2-2-2-|
E||--5-------5-5-|-------------|-3-------3-3-|--------------|-1-------1-1-|-0----0-0-0-0-|
                ______________  _________________________________
               | 1.            | 2.
e|-------------|--------------||---------------------------------|
B|-------------|--------------||---------------------------------|
G|-------------|-------------*||---------------------------------|
D|-3-----3--3--|-5--5--5--5--*||-5-5-5-5-5-5-5-5-5-5-5-5-5-5-5-5-|
A|-3-----3--3--|-5--5--5--5---||-5-5-5-5-5-5-5-5-5-5-5-5-5-5-5-5-|
E|-1-----1--1--|-3--3--3--3---||-3-3-3-3-3-3-3-3-3-3-3-3-3-3-3-3-|
                                 * * * * * * * * * * * * * * * *

  Lead
e||--------------|----------------------|-------------|-----------------|-------------|
B||------------5-|-5-6-5-3-3---3-3------|------3----5-|-5-6-5-3-5---5-5-|-----------5-|
G||*-2--4-5-2----|------------------0-2-|-4--5---4----|-----------------|-2--4-5-2----|
D||*-------------|----------------------|-------------|-----------------|-------------|
A||--------------|----------------------|-------------|-----------------|-------------|
E||--------------|----------------------|-------------|-----------------|-------------|
  _________________________________________  _____________________________
 | 1.                                       | 2.
e|---------|----------------|--------------||----------------|------------|
B|---------|----------------|--------------||-3--3-----------|------------|
G|-4-----0-|-2---2-2-4---5--|-4--2--0-----*||------5-4---4-0-|-2--2-4--5--|
D|---------|----------------|----------0--*||----------------|------------|
A|---------|----------------|--------------||----------------|------------|
E|---------|----------------|--------------||----------------|------------|

e|---------------------------------|
B|---------------------------------|
G|-4-5-4-2-0-2-0-----------2-4-5-4-|
D|---------------4-0-4-4-0---------|
A|---------------------------------|
E|---------------------------------|


{[Interlude]}

Rhythm
e||----------------------------------|---------------------------------|
B||----------------------------------|---------------------------------|
G||*---------------------------------|-7-7-7-7-7-7-7-7-7-7-7-7-7-7-7-7-|
D||*-7-7-7-7-7-7-7-7-7-7-7-7-7-7-7-7-|-7-7-7-7-7-7-7-7-7-7-7-7-7-7-7-7-|
A||--7-7-7-7-7-7-7-7-7-7-7-7-7-7-7-7-|-5-5-5-5-5-5-5-5-5-5-5-5-5-5-5-5-|
E||--5-5-5-5-5-5-5-5-5-5-5-5-5-5-5-5-|---------------------------------|

e|---------------------------------|---------------------------------|
B|---------------------------------|---------------------------------|
G|---------------------------------|-5-5-5-5-5-5-5-5-5-5-5-5-5-5-5-5-|
D|-5-5-5-5-5-5-5-5-5-5-5-5-5-5-5-5-|-5-5-5-5-5-5-5-5-5-5-5-5-5-5-5-5-|
A|-5-5-5-5-5-5-5-5-5-5-5-5-5-5-5-5-|-3-3-3-3-3-3-3-3-3-3-3-3-3-3-3-3-|
E|-3-3-3-3-3-3-3-3-3-3-3-3-3-3-3-3-|---------------------------------|

e|---------------------------------|---------------------------------|
B|---------------------------------|---------------------------------|
G|---------------------------------|---------------------------------|
D|-3-3-3-3-3-3-3-3-3-3-3-3-3-3-3-3-|-2-2-2-2-2-2-2-2-2-2-2-2-2-2-2-2-|
A|-3-3-3-3-3-3-3-3-3-3-3-3-3-3-3-3-|-2-2-2-2-2-2-2-2-2-2-2-2-2-2-2-2-|
E|-1-1-1-1-1-1-1-1-1-1-1-1-1-1-1-1-|-0-0-0-0-0-0-0-0-0-0-0-0-0-0-0-0-|

e|---------------------------------|----------------------------------||
B|---------------------------------|----------------------------------||
G|---------------------------------|---------------------------------*||
D|-3-3-3-3-3-3-3-3-3-3-3-3-3-3-3-3-|-5-5-5-5-5-5-5-5-5-5-5-5-5-5-5-5-*|| x4
A|-3-3-3-3-3-3-3-3-3-3-3-3-3-3-3-3-|-5-5-5-5-5-5-5-5-5-5-5-5-5-5-5-5--||
E|-1-1-1-1-1-1-1-1-1-1-1-1-1-1-1-1-|-3-3-3-3-3-3-3-3-3-3-3-3-3-3-3-3--||


Lead
e||----------------12-|-12-13-12-10-10---------|--------10------12-|
B||--10--12-13-10-----|---------------------10-|-12--13----12------|
G||*------------------|------------------12----|-------------------|
D||*------------------|------------------------|-------------------|
A||-------------------|------------------------|-------------------|
E||-------------------|------------------------|-------------------|
                                                   ____________
                                                  | 1.
e|-12-13-12-10-12-----12-12-|------------------12-|------------|
B|--------------------------|-10--10-12-13-10-----|-12---------|
G|--------------------------|---------------------|---------12-|
D|--------------------------|---------------------|------------|
A|--------------------------|---------------------|------------|
E|--------------------------|---------------------|------------|
                                              __________________________________________
                                             | 2.
e|-----------------------|------------------||-10-12-10---------------|-----------------|
B|-10--10-10-10--12--13--|-12--10-----------||----------13-12---12----|-10--10-12---13--|
G|-----------------------|---------12------*||---------------------12-|-----------------|
D|-----------------------|-------------12--*||------------------------|-----------------|
A|-----------------------|------------------||------------------------|-----------------|
E|-----------------------|------------------||------------------------|-----------------|

e|-------------------------------------------------|
B|-12-13-12-10----10----------------10-12-13-13-12-|
G|-------------12----12-11----11-12----------------|
D|-------------------------12----------------------|
A|-------------------------------------------------|
E|-------------------------------------------------|

   w/vibrato effect
e||----------12~-|-13~-----------|----------12~-13~-|-12~--------|
B||--10~---------|-----------10~-|-12~--------------|------------|
G||*-------------|---------------|------------------|------------|
D||*-------------|---------------|------------------|------------|
A||--------------|---------------|------------------|------------|
E||--------------|---------------|------------------|------------|
                                                 __________________
                                                | 1.
e|----------12~-|-------------|-----------------|------------------||
B|-10~----------|-12~---------|-10~---12~--13~--|-12~-10~----------||
G|--------------|---------12~-|-----------------|---------12~-----*||
D|--------------|-------------|-----------------|-------------12~-*||
A|--------------|-------------|-----------------|------------------||
E|--------------|-------------|-----------------|------------------||
  _________________________________________________
 | 2.
e|-------------------------------------------------|
B|-12-13-12-10----10----------------10-12-13-13-12-|
G|-------------12----12-11----11-12----------------|
D|-------------------------12----------------------|
A|-------------------------------------------------|
E|-------------------------------------------------|


then transition:

e|---------15~/17~----|
B|-10~----------------|
G|--------------------|
D|--------------------|
A|--------------------|
E|--------------------|
 |
 | w/wah
e|--------------------|
B|--------------------|
G|--------------------|
D|-7------------------| (strum repeatedly)
A|-7------------------|
E|-5------------------|


{[Outro]}
e|-----------------|-----------------|-----------------|-----------------|
B|-----------------|-----------------|-----------------|-----------------|
G|-----------------|-----------------|-----------------|-----------------|
D|-----------------|-----------------|-----------------|-5-4-------------| Play 3 times
A|-5/7-7-7-7-7-7-7-|-5/7-7-7-7-7-7-7-|10\7-7-7-7-7-7-7-|-3-2-5---7-7-7-7-|
E|-3/5-5-5-5-5-5-5-|-3/5-5-5-5-5-5-5-|-8\5-5-5-5-5-5-5-|-----3---5-5-5-5-|

e|-----------------|--------------------|
B|-----------------|--------------------|
G|-----------------|--------------------| Play 3 times
D|-----------------|---------7--7--7--9-|
A|-2-2-2-2-2-2-2-2-|-2-2-2-2-5--5--5--7-|
E|-0-0-0-0-0-0-0-0-|-0-0-0-0------------|

e|-----------------|-----------------|-----------------|
B|-----------------|-----------------|-----------------|
G|-----------------|-----------------|-----------------|
D|-----------------|---------7-7-7---|-----9-9-9-9-9-9-|
A|-2-2-2-2-2-2-2-2-|-2-2-2-2-5-5-5-7-|-7-7-7-7-7-7-7-7-|
E|-0-0-0-0-0-0-0-0-|-0-0-0-0-------5-|-5-5-------------|


e|----7--------|----10--11--10--|---10--------------|----10-------------|
B|-------7--8--|-8--------------|-------10-11-10----|--------10-11-10-8-|
G|-------------|----------------|----------------10-|-------------------|
D|-------------|----------------|-------------------|-------------------|
A|-------------|----------------|-------------------|-------------------|
E|-------------|----------------|-------------------|-------------------|
 |
e|-------------|----------------|-------------------|-------------------|
B|-------------|----------------|-------------------|-8-----------------|
G|-------------|----------------|-------------------|-7-----------------|
D|-9-----------|-5--------------|-7-----------------|-5-----------------|
A|-7-----------|-5--------------|-5-----------------|-------------------|
E|-------------|-3--------------|-------------------|-------------------|


e|----10-------------|----11--10-11-8---|---10--------------|----10-------------|
B|-8------10-11-10-8-|-8--------------8-|-7-----10-11-10----|--------10-11-10-8-|
G|-------------------|------------------|----------------10-|-------------------|
D|-------------------|------------------|-------------------|-------------------|
A|-------------------|------------------|-------------------|-------------------|
E|-------------------|------------------|-------------------|-------------------|
 |
e|-------------------|-8----------------|-------------------|-------------------|
B|-------------------|-8----------------|-------------------|-8-----------------|
G|-------------------|-5----------------|-------------------|-7-----------------|
D|-5-----------------|------------------|-7-----------------|-5-----------------|
A|-5-----------------|------------------|-5-----------------|-------------------|
E|-3-----------------|------------------|-------------------|-------------------|


e|----10-------------|----11--10-11-8---|---10--------------|----------||
B|-8------10-11-10-8-|----------------8-|-------10-11-10----|-8--------||
G|-------------------|------------------|----------------10-|----------||
D|-------------------|------------------|-------------------|----------||
A|-------------------|------------------|-------------------|----------||
E|-------------------|------------------|-------------------|----------||
 |
e|-------------------|-8----------------|-------------------|----------||
B|-------------------|-8----------------|-------------------|----------||
G|-------------------|-5----------------|-------------------|-7--------||
D|-5-----------------|------------------|-7-----------------|-5--------||
A|-5-----------------|------------------|-5-----------------|----------||
E|-3-----------------|------------------|-------------------|----------||

_____________________________________
Tab Legend:

" - tremolo pick
p - pull off
h - hammer on
\ - slide down
/ - slide up
* - palm mute
~ - vibrato
Добавлено: 24.11.2015
Вам также может быть интересно:
Другие материалы по этой песне:
  • Аккорды и текст

Страница создана 24.11.2015
http://primanota.ru/denial-of-god/behind-coffins-lid-chords.htm
Привет, Гость.
Предлагаем пройти революционный курс по гитаре.
Подарок от PrimaNota.Ru, забирай!