PrimaNota.ru - самый крупный в мире бесплатный архив песенных текстов, аккордов, табулатур и нот


Denali - Gunner - текст песни, таба, бас-таба, видео

Регистрация Запомнить меня
Войти через:  Facebook Google Twitter Vk Yandex Mail.ru

Denali - Gunner - текст песни, таба, бас-таба, видео

Печатать
Просмотров: 197
Уроки эстрадного вокала в Санкт-Петербурге
As recorded by Denali
(From the 2002 Album DENALI)

Transcribed by Jonathan Rose
        

Words and Music by Denali
Arranged by Denali

Gtr I (E A D G B E) - 'Maura Davis (Rhythm)'
Gtr II (E A D G B E) - 'Cam Dinunzio (Lead)'
Gtr III (E A D G B E) - 'Strings'

   Intro
    Indie Q=156
    G#F#F#m                    G#F#F#m
   4/4
    Gtr I
    E E Q  H      +W           E E Q  H      +W
||---------2----|-(2)--------|--------2----|-(2)-----||
||o--------2----|-(2)--------|--------2----|-(2)----o||
||------2--2----|-(2)--------|-----2--2----|-(2)-----||
||--6s4-4--4----|-(4)--------|-6s4-4--4----|-(4)-----||
||o-6s4-4--4----|-(4)--------|-6s4-4--4----|-(4)----o||
||--4s2-2--2----|-(2)--------|-4s2-2--2----|-(2)-----||


   Verse
    G#5   F#F#m
    Gtr II
                           ~~~~~~~~~~~~~~~
    H       Q  Q      Q    Q   +H
||-----------------|---------------------|
||o----------------|--9------------------|
||-------------6---|-------6---(6)-------|
||----------9------|---------------------|
||o----------------|---------------------|
||-----------------|---------------------|
|
|   Gtr I
|   E E E E Q  E E   +E  E Q.      E E E
||----------2--2-2-|-(2)-2-2-------2-2-2-|
||o---------2--2-2-|-(2)-2-2-------2-2-2-|
||----------2--2-2-|-(2)-2-2-------2-2-2-|
||--6-6-6s4-4--4-4-|-(4)-4-4-------4-4-4-|
||o-6-6-6s4-4--4-4-|-(4)-4-4-------4-4-4-|
||--4-4-4s2-2--2-2-|-(2)-2-2-------2-2-2-|


  G#5     F#F#m
 ~~~~~~~~~~~~~~~~~~~~~~~~
  +W                 +W
|------------------|-------------------||
|------------------|------------------o||
|-(6)--------------|-(6)---------------||
|------------------|-------------------||
|------------------|------------------o||
|------------------|-------------------||
|
|  E  E E E Q  E E   +E  E Q.   E E E
|-----------2--2-2-|-(2)-2-2----2-2-2--||
|-----------2--2-2-|-(2)-2-2----2-2-2-o||
|-----------2--2-2-|-(2)-2-2----2-2-2--||
|--6--6-6s4-4--4-4-|-(4)-4-4----4-4-4--||
|--6--6-6s4-4--4-4-|-(4)-4-4----4-4-4-o||
|--4--4-4s2-2--2-2-|-(2)-2-2----2-2-2--||


 Pre-Chorus
  N.C. A                           Bm
  H    Q  Q      Q    Q  Q   Q     Q   Q   Q  Q      Q    Q  Q   Q
|-------------|------------------|----------------|-------------------|
|-------------|--5-----------3---|------------2---|-------2------2----|
|---------2---|-------2----------|-2-------4------|--4-------4--------|
|------4------|----------4-------|-----4----------|-------------------|
|-------------|------------------|----------------|-------------------|
|-------------|------------------|----------------|-------------------|
|
| H    Q  E E   +E  E Q  E E E E   E E E E Q  E E   +E  E Q  E E E E
|------5--5-5-|-(5)-5-5--5-5-5-5-|-7-7-7-7-7--7-7-|-(7)-7-7--7-7-7-7--|
|------5--5-5-|-(5)-5-5--5-5-5-5-|-7-7-7-7-7--7-7-|-(7)-7-7--7-7-7-7--|
|------6--6-6-|-(6)-6-6--6-6-6-6-|-7-7-7-7-7--7-7-|-(7)-7-7--7-7-7-7--|
|------7--7-7-|-(7)-7-7--7-7-7-7-|-9-9-9-9-9--9-9-|-(9)-9-9--9-9-9-9--|
|------7--7-7-|-(7)-7-7--7-7-7-7-|-9-9-9-9-9--9-9-|-(9)-9-9--9-9-9-9--|
|------5--5-5-|-(5)-5-5--5-5-5-5-|-7-7-7-7-7--7-7-|-(7)-7-7--7-7-7-7--|


  A                                   Bm
  Q   Q   Q  Q      Q    Q  Q   Q     Q   Q   Q  Q      Q    Q  Q   Q
|----------------|------------------|----------------|-------------------||
|-----2----------|--5-----------3---|------------2---|-------2------2----||
|-4----------2---|-------2----------|-2-------4------|--4-------4--------||
|---------4------|----------4-------|-----4----------|-------------------||
|----------------|------------------|----------------|-------------------||
|----------------|------------------|----------------|-------------------||
|
| E E E E Q  E E   +E  E Q  E E E E   E E E E Q  E E   +E  E Q  E E E E
|-5-5-5-5-5--5-5-|-(5)-5-5--5-5-5-5-|-7-7-7-7-7--7-7-|-(7)-7-7--7-7-7-7--||
|-5-5-5-5-5--5-5-|-(5)-5-5--5-5-5-5-|-7-7-7-7-7--7-7-|-(7)-7-7--7-7-7-7--||
|-6-6-6-6-6--6-6-|-(6)-6-6--6-6-6-6-|-7-7-7-7-7--7-7-|-(7)-7-7--7-7-7-7--||
|-7-7-7-7-7--7-7-|-(7)-7-7--7-7-7-7-|-9-9-9-9-9--9-9-|-(9)-9-9--9-9-9-9--||
|-7-7-7-7-7--7-7-|-(7)-7-7--7-7-7-7-|-9-9-9-9-9--9-9-|-(9)-9-9--9-9-9-9--||
|-5-5-5-5-5--5-5-|-(5)-5-5--5-5-5-5-|-7-7-7-7-7--7-7-|-(7)-7-7--7-7-7-7--||


 Chorus
  A
  Gtr II
   Q   Q    Q    Q       Q     Q   Q    Q
|-----------9--------|---7-------------------|
|-----10-------------|--------10---9---10----|
|-11------------11---|-----------------------|
|--------------------|-----------------------|
|--------------------|-----------------------|
|--------------------|-----------------------|
|
| Gtr I
|  Q   Q    Q    E E    +E  E  E E Q    E  E
|--5---5----5----5-5-|--(5)-5--5-5-5----5--5-|
|--5---5----5----5-5-|--(5)-5--5-5-5----5--5-|
|--6---6----6----6-6-|--(6)-6--6-6-6----6--6-|
|--7---7----7----7-7-|--(7)-7--7-7-7----7--7-|
|--7---7----7----7-7-|--(7)-7--7-7-7----7--7-|
|--5---5----5----5-5-|--(5)-5--5-5-5----5--5-|
|
| Gtr III
|  <                           <
|  ~~~~~~~~~~~~~~~~~~~~~~~~~~~~~~~~~~~~~~~~~~~
|  H       +H           +Q     H       +Q
|--------------------|-----------------------|
|--------------------|--------10------(10)---|
|-11------(11)-------|-(11)----9-------(9)---|
|-11------(11)-------|-(11)------------------|
|--9-------(9)-------|--(9)------------------|
|--------------------|--------10------(10)---|


   Q   Q  Q   Q       Q     Q   Q    Q
|--7------7-------|---7---------7----------|
|-----10-----10---|--------10-------10-----|
|-----------------|------------------------|
|-----------------|------------------------|
|-----------------|------------------------|
|-----------------|------------------------|
|
|  Q   Q  Q   E E    +E  E  E E Q    E  E
|--5---5--5---5-5-|--(5)-5--5-5-5----5--5--|
|--5---5--5---5-5-|--(5)-5--5-5-5----5--5--|
|--6---6--6---6-6-|--(6)-6--6-6-6----6--6--|
|--7---7--7---7-7-|--(7)-7--7-7-7----7--7--|
|--7---7--7---7-7-|--(7)-7--7-7-7----7--7--|
|--5---5--5---5-5-|--(5)-5--5-5-5----5--5--|
|
|~~~~~~~~~~~~~~~~~~~~~~~~~~~~~~~~~~~~~~~
|  W                 +H.             Q
|-----------------|------------------7-----|
|-10--------------|-(10)-----------(10)----|
|--9--------------|--(9)------------(9)----|
|-----------------|------------------------|
|-----------------|------------------------|
|-10--------------|-(10)-----------(10)----|


  Bm
   Q   Q    Q    Q       Q     Q   Q    Q
|-----------9--------|---7-------------------|
|-----10-------------|--------10---9---10----|
|-11------------11---|-----------------------|
|--------------------|-----------------------|
|--------------------|-----------------------|
|--------------------|-----------------------|
|
|  Q   Q    Q    E E    +E  E  E E Q    E  E
|--7---7----7----7-7-|--(7)-7--7-7-7----7--7-|
|--7---7----7----7-7-|--(7)-7--7-7-7----7--7-|
|--7---7----7----7-7-|--(7)-7--7-7-7----7--7-|
|--9---9----9----9-9-|--(9)-9--9-9-9----9--9-|
|--9---9----9----9-9-|--(9)-9--9-9-9----9--9-|
|--7---7----7----7-7-|--(7)-7--7-7-7----7--7-|
|
|  <                           <
|  ~~~~~~~~~~~~~~~~~~~~~~~~~~~~~~~~~~~~~~~~~~~
|  H       +H           +Q     H       +Q
|--------------------|-----------------------|
|--------------------|--------10------(10)---|
|-11------(11)-------|-(11)----9-------(9)---|
|-11------(11)-------|-(11)------------------|
|--9-------(9)-------|--(9)------------------|
|--------------------|--------10------(10)---|


   Q   Q  Q   Q       Q     Q   Q    Q
|--7------7-------|---7---------7----------||
|-----10-----10---|--------10-------10-----||
|-----------------|------------------------||
|-----------------|------------------------||
|-----------------|------------------------||
|-----------------|------------------------||
|
|  Q   Q  Q   E E    +E  E  E E Q    E  E
|--7---7--7---7-7-|--(7)-7--7-7-7----7--7--||
|--7---7--7---7-7-|--(7)-7--7-7-7----7--7--||
|--7---7--7---7-7-|--(7)-7--7-7-7----7--7--||
|--9---9--9---9-9-|--(9)-9--9-9-9----9--9--||
|--9---9--9---9-9-|--(9)-9--9-9-9----9--9--||
|--7---7--7---7-7-|--(7)-7--7-7-7----7--7--||
|
|~~~~~~~~~~~~~~~~~~~~~~~~~~~~~~~~~~~~~~~
|  W                 +H.             Q
|-----------------|------------------7-----||
|-10--------------|-(10)-----------(10)----||
|--9--------------|--(9)------------(9)----||
|-----------------|------------------------||
|-----------------|------------------------||
|-10--------------|-(10)-----------(10)----||


 Verse
  G#5   F#F#m                         G#5     F#F#m
          ~~~~~~~~~~~~~~~~~~~~~~~~~~~~~~~~~~~~~~~~~~~~~~~~~~~
  Q   Q   H        +W                 +W                 +W
|----------------|------------------|------------------|-------------------|
|---------9------|-(9)--------------|-(9)--------------|-(9)---------------|
|-----6----------|------------------|------------------|-------------------|
|-9--------------|------------------|------------------|-------------------|
|----------------|------------------|------------------|-------------------|
|----------------|------------------|------------------|-------------------|
|
| E E E E Q  E E   +E  E Q.   E E E    E  E E E Q  E E   +E  E Q.   E E E
|---------2--2-2-|-(2)-2-2----2-2-2-|-----------2--2-2-|-(2)-2-2----2-2-2--|
|---------2--2-2-|-(2)-2-2----2-2-2-|-----------2--2-2-|-(2)-2-2----2-2-2--|
|---------2--2-2-|-(2)-2-2----2-2-2-|-----------2--2-2-|-(2)-2-2----2-2-2--|
|-6-6-6s4-4--4-4-|-(4)-4-4----4-4-4-|--6--6-6s4-4--4-4-|-(4)-4-4----4-4-4--|
|-6-6-6s4-4--4-4-|-(4)-4-4----4-4-4-|--6--6-6s4-4--4-4-|-(4)-4-4----4-4-4--|
|-4-4-4s2-2--2-2-|-(2)-2-2----2-2-2-|--4--4-4s2-2--2-2-|-(2)-2-2----2-2-2--|


  G#5   F#F#m
          ~~~~~~~~~~~~~~~~~~~~~~~~~~~
  Q   Q   H        +W
|----------------|------------------|
|---------9------|-(9)--------------|
|-----6----------|------------------|
|-9--------------|------------------|
|----------------|------------------|
|----------------|------------------|
|
| E E E E Q  E E   +E  E Q.   E E E
|---------2--2-2-|-(2)-2-2----2-2-2-|
|---------2--2-2-|-(2)-2-2----2-2-2-|
|---------2--2-2-|-(2)-2-2----2-2-2-|
|-6-6-6s4-4--4-4-|-(4)-4-4----4-4-4-|
|-6-6-6s4-4--4-4-|-(4)-4-4----4-4-4-|
|-4-4-4s2-2--2-2-|-(2)-2-2----2-2-2-|


  G#5     F#F#m
 ~~~~~~~~~~~~~~~~~~~~~~~~
  +W                 +Q     a  Q    Q    Q
|------------------|-------------------------|
|-(9)--------------|-(9)----------------10---|
|------------------|-------10s11---11--------|
|------------------|-------------------------|
|------------------|-------------------------|
|------------------|-------------------------|
|
|  E  E E E Q  E E   +E  E     Q.     E  E E
|-----------2--2-2-|-(2)-2-----2------2--2-2-|
|-----------2--2-2-|-(2)-2-----2------2--2-2-|
|-----------2--2-2-|-(2)-2-----2------2--2-2-|
|--6--6-6s4-4--4-4-|-(4)-4-----4------4--4-4-|
|--6--6-6s4-4--4-4-|-(4)-4-----4------4--4-4-|
|--4--4-4s2-2--2-2-|-(2)-2-----2------2--2-2-|


  G#5   F#F#m                         G#5     F#F#m
          ~~~~~~~~~~~~~~~~~~~~~~~~~~~~~~~~~~~~~~~~~~~~~~~~~~~
  Q   Q   H        +W                 +W                 +W
|----------------|------------------|------------------|-------------------|
|---------9------|-(9)--------------|-(9)--------------|-(9)---------------|
|-----6----------|------------------|------------------|-------------------|
|-9--------------|------------------|------------------|-------------------|
|----------------|------------------|------------------|-------------------|
|----------------|------------------|------------------|-------------------|
|
| E E E E Q  E E   +E  E Q.   E E E    E  E E E Q  E E   +E  E Q.   E E E
|---------2--2-2-|-(2)-2-2----2-2-2-|-----------2--2-2-|-(2)-2-2----2-2-2--|
|---------2--2-2-|-(2)-2-2----2-2-2-|-----------2--2-2-|-(2)-2-2----2-2-2--|
|---------2--2-2-|-(2)-2-2----2-2-2-|-----------2--2-2-|-(2)-2-2----2-2-2--|
|-6-6-6s4-4--4-4-|-(4)-4-4----4-4-4-|--6--6-6s4-4--4-4-|-(4)-4-4----4-4-4--|
|-6-6-6s4-4--4-4-|-(4)-4-4----4-4-4-|--6--6-6s4-4--4-4-|-(4)-4-4----4-4-4--|
|-4-4-4s2-2--2-2-|-(2)-2-2----2-2-2-|--4--4-4s2-2--2-2-|-(2)-2-2----2-2-2--|


  G#5   F#F#m
          ~~~~~~~~~~~~~~~~~~~~~~~~~~~
  Q   Q   H        +W
|----------------|------------------|
|---------9------|-(9)--------------|
|-----6----------|------------------|
|-9--------------|------------------|
|----------------|------------------|
|----------------|------------------|
|
| E E E E Q  E E   +E  E Q.   E E E
|---------2--2-2-|-(2)-2-2----2-2-2-|
|---------2--2-2-|-(2)-2-2----2-2-2-|
|---------2--2-2-|-(2)-2-2----2-2-2-|
|-6-6-6s4-4--4-4-|-(4)-4-4----4-4-4-|
|-6-6-6s4-4--4-4-|-(4)-4-4----4-4-4-|
|-4-4-4s2-2--2-2-|-(2)-2-2----2-2-2-|


  G#5     F#F#m
 ~~~~~~~~~~~~~~~~~~~~~~~~
  +W                 +Q     a  Q    Q    Q
|------------------|-------------------------|
|-(9)--------------|-(9)----------------10---|
|------------------|-------10s11---11--------|
|------------------|-------------------------|
|------------------|-------------------------|
|------------------|-------------------------|
|
|  E  E E E Q  E E   +E  E     Q.     E  E E
|-----------2--2-2-|-(2)-2-----2------2--2-2-|
|-----------2--2-2-|-(2)-2-----2------2--2-2-|
|-----------2--2-2-|-(2)-2-----2------2--2-2-|
|--6--6-6s4-4--4-4-|-(4)-4-----4------4--4-4-|
|--6--6-6s4-4--4-4-|-(4)-4-----4------4--4-4-|
|--4--4-4s2-2--2-2-|-(2)-2-----2------2--2-2-|


  G#5   F#F#m                         G#5     F#F#m
          ~~~~~~~~~~~~~~~~~~~~~~~~~~~~~~~~~~~~~~~~~~~~~~~~~~~
  Q   Q   H        +W                 +W                 +W
|----------------|------------------|------------------|-------------------|
|---------9------|-(9)--------------|-(9)--------------|-(9)---------------|
|-----6----------|------------------|------------------|-------------------|
|-9--------------|------------------|------------------|-------------------|
|----------------|------------------|------------------|-------------------|
|----------------|------------------|------------------|-------------------|
|
| E E E E Q  E E   +E  E Q.   E E E    E  E E E Q  E E   +E  E Q.   E E E
|---------2--2-2-|-(2)-2-2----2-2-2-|-----------2--2-2-|-(2)-2-2----2-2-2--|
|---------2--2-2-|-(2)-2-2----2-2-2-|-----------2--2-2-|-(2)-2-2----2-2-2--|
|---------2--2-2-|-(2)-2-2----2-2-2-|-----------2--2-2-|-(2)-2-2----2-2-2--|
|-6-6-6s4-4--4-4-|-(4)-4-4----4-4-4-|--6--6-6s4-4--4-4-|-(4)-4-4----4-4-4--|
|-6-6-6s4-4--4-4-|-(4)-4-4----4-4-4-|--6--6-6s4-4--4-4-|-(4)-4-4----4-4-4--|
|-4-4-4s2-2--2-2-|-(2)-2-2----2-2-2-|--4--4-4s2-2--2-2-|-(2)-2-2----2-2-2--|


  G#5   F#F#m                         G#5     F#F#m
          ~~~~~~~~~~~~~~~~~~~~~~~~~~~~~~~~~~~~~~~~~~~~~~~~~~~
  Q   Q   H        +W                 +W                 +Q    a Q   Q   Q
|----------------|------------------|------------------|---------------------||
|---------9------|-(9)--------------|-(9)--------------|-(9)-------------7---||
|-----6----------|------------------|------------------|-------------6-------||
|-9--------------|------------------|------------------|-------7s9-----------||
|----------------|------------------|------------------|---------------------||
|----------------|------------------|------------------|---------------------||
|
| E E E E Q  E E   +E  E Q.   E E E    E  E E E Q  E E   +E  E   Q.    E E E
|---------2--2-2-|-(2)-2-2----2-2-2-|-----------2--2-2-|-(2)-2---2-----2-2-2-||
|---------2--2-2-|-(2)-2-2----2-2-2-|-----------2--2-2-|-(2)-2---2-----2-2-2-||
|---------2--2-2-|-(2)-2-2----2-2-2-|-----------2--2-2-|-(2)-2---2-----2-2-2-||
|-6-6-6s4-4--4-4-|-(4)-4-4----4-4-4-|--6--6-6s4-4--4-4-|-(4)-4---4-----4-4-4-||
|-6-6-6s4-4--4-4-|-(4)-4-4----4-4-4-|--6--6-6s4-4--4-4-|-(4)-4---4-----4-4-4-||
|-4-4-4s2-2--2-2-|-(2)-2-2----2-2-2-|--4--4-4s2-2--2-2-|-(2)-2---2-----2-2-2-||


   Pre-Chorus
    A                                   Bm
    Q   Q   Q  Q      Q    Q  Q   Q     Q   Q   Q  Q      Q    Q  Q   Q
||-----------------|------------------|----------------|-------------------||
||o---------5------|--3-----------2---|------------2---|-------2------2---o||
||------2------2---|-------2----------|-2-------4------|--4-------4--------||
||--4--------------|----------4-------|-----4----------|-------------------||
||o----------------|------------------|----------------|------------------o||
||-----------------|------------------|----------------|-------------------||
|
|   E E E E Q  E E   +E  E Q  E E E E   E E E E Q  E E   +E  E Q  E E E E
||--5-5-5-5-5--5-5-|-(5)-5-5--5-5-5-5-|-7-7-7-7-7--7-7-|-(7)-7-7--7-7-7-7--||
||o-5-5-5-5-5--5-5-|-(5)-5-5--5-5-5-5-|-7-7-7-7-7--7-7-|-(7)-7-7--7-7-7-7-o||
||--6-6-6-6-6--6-6-|-(6)-6-6--6-6-6-6-|-7-7-7-7-7--7-7-|-(7)-7-7--7-7-7-7--||
||--7-7-7-7-7--7-7-|-(7)-7-7--7-7-7-7-|-9-9-9-9-9--9-9-|-(9)-9-9--9-9-9-9--||
||o-7-7-7-7-7--7-7-|-(7)-7-7--7-7-7-7-|-9-9-9-9-9--9-9-|-(9)-9-9--9-9-9-9-o||
||--5-5-5-5-5--5-5-|-(5)-5-5--5-5-5-5-|-7-7-7-7-7--7-7-|-(7)-7-7--7-7-7-7--||


 Chorus
  A
  Gtr II
   Q   Q    Q    Q       Q     Q   Q    Q
|-----------9--------|---7-------------------|
|-----10-------------|--------10---9---10----|
|-11------------11---|-----------------------|
|--------------------|-----------------------|
|--------------------|-----------------------|
|--------------------|-----------------------|
|
| Gtr I
|  Q   Q    Q    E E    +E  E  E E Q    E  E
|--5---5----5----5-5-|--(5)-5--5-5-5----5--5-|
|--5---5----5----5-5-|--(5)-5--5-5-5----5--5-|
|--6---6----6----6-6-|--(6)-6--6-6-6----6--6-|
|--7---7----7----7-7-|--(7)-7--7-7-7----7--7-|
|--7---7----7----7-7-|--(7)-7--7-7-7----7--7-|
|--5---5----5----5-5-|--(5)-5--5-5-5----5--5-|
|
| Gtr III
|  <                           <
|  ~~~~~~~~~~~~~~~~~~~~~~~~~~~~~~~~~~~~~~~~~~~
|  H       +H           +Q     H       +Q
|--------------------|-----------------------|
|--------------------|--------10------(10)---|
|-11------(11)-------|-(11)----9-------(9)---|
|-11------(11)-------|-(11)------------------|
|--9-------(9)-------|--(9)------------------|
|--------------------|--------10------(10)---|


   Q   Q  Q   Q       Q     Q   Q    Q
|--7------7-------|---7---------7----------|
|-----10-----10---|--------10-------10-----|
|-----------------|------------------------|
|-----------------|------------------------|
|-----------------|------------------------|
|-----------------|------------------------|
|
|  Q   Q  Q   E E    +E  E  E E Q    E  E
|--5---5--5---5-5-|--(5)-5--5-5-5----5--5--|
|--5---5--5---5-5-|--(5)-5--5-5-5----5--5--|
|--6---6--6---6-6-|--(6)-6--6-6-6----6--6--|
|--7---7--7---7-7-|--(7)-7--7-7-7----7--7--|
|--7---7--7---7-7-|--(7)-7--7-7-7----7--7--|
|--5---5--5---5-5-|--(5)-5--5-5-5----5--5--|
|
|~~~~~~~~~~~~~~~~~~~~~~~~~~~~~~~~~~~~~~~
|  W                 +H.             Q
|-----------------|------------------7-----|
|-10--------------|-(10)-----------(10)----|
|--9--------------|--(9)------------(9)----|
|-----------------|------------------------|
|-----------------|------------------------|
|-10--------------|-(10)-----------(10)----|


  Bm
   Q   Q    Q    Q       Q     Q   Q    Q
|-----------9--------|---7-------------------|
|-----10-------------|--------10---9---10----|
|-11------------11---|-----------------------|
|--------------------|-----------------------|
|--------------------|-----------------------|
|--------------------|-----------------------|
|
|  Q   Q    Q    E E    +E  E  E E Q    E  E
|--7---7----7----7-7-|--(7)-7--7-7-7----7--7-|
|--7---7----7----7-7-|--(7)-7--7-7-7----7--7-|
|--7---7----7----7-7-|--(7)-7--7-7-7----7--7-|
|--9---9----9----9-9-|--(9)-9--9-9-9----9--9-|
|--9---9----9----9-9-|--(9)-9--9-9-9----9--9-|
|--7---7----7----7-7-|--(7)-7--7-7-7----7--7-|
|
|  <                           <
|  ~~~~~~~~~~~~~~~~~~~~~~~~~~~~~~~~~~~~~~~~~~~
|  H       +H           +Q     H       +Q
|--------------------|-----------------------|
|--------------------|--------10------(10)---|
|-11------(11)-------|-(11)----9-------(9)---|
|-11------(11)-------|-(11)------------------|
|--9-------(9)-------|--(9)------------------|
|--------------------|--------10------(10)---|


   Q   Q  Q   Q       Q     Q   Q    Q
|--7------7-------|---7---------7----------|
|-----10-----10---|--------10-------10-----|
|-----------------|------------------------|
|-----------------|------------------------|
|-----------------|------------------------|
|-----------------|------------------------|
|
|  Q   Q  Q   E E    +E  E  E E Q    E  E
|--7---7--7---7-7-|--(7)-7--7-7-7----7--7--|
|--7---7--7---7-7-|--(7)-7--7-7-7----7--7--|
|--7---7--7---7-7-|--(7)-7--7-7-7----7--7--|
|--9---9--9---9-9-|--(9)-9--9-9-9----9--9--|
|--9---9--9---9-9-|--(9)-9--9-9-9----9--9--|
|--7---7--7---7-7-|--(7)-7--7-7-7----7--7--|
|
|~~~~~~~~~~~~~~~~~~~~~~~~~~~~~~~~~~~~~~~
|  W                 +H.             Q
|-----------------|------------------7-----|
|-10--------------|-(10)-----------(10)----|
|--9--------------|--(9)------------(9)----|
|-----------------|------------------------|
|-----------------|------------------------|
|-10--------------|-(10)-----------(10)----|


  A
   Q   Q    Q    Q       Q     Q   Q    Q
|-----------9--------|---7-------------------|
|-----10-------------|--------10---9---10----|
|-11------------11---|-----------------------|
|--------------------|-----------------------|
|--------------------|-----------------------|
|--------------------|-----------------------|
|
|  Q   Q    Q    E E    +E  E  E E Q    E  E
|--5---5----5----5-5-|--(5)-5--5-5-5----5--5-|
|--5---5----5----5-5-|--(5)-5--5-5-5----5--5-|
|--6---6----6----6-6-|--(6)-6--6-6-6----6--6-|
|--7---7----7----7-7-|--(7)-7--7-7-7----7--7-|
|--7---7----7----7-7-|--(7)-7--7-7-7----7--7-|
|--5---5----5----5-5-|--(5)-5--5-5-5----5--5-|
|
|  <                           <
|  ~~~~~~~~~~~~~~~~~~~~~~~~~~~~~~~~~~~~~~~~~~~
|  H       +H           +Q     H       +Q
|--------------------|-----------------------|
|--------------------|--------10------(10)---|
|-11------(11)-------|-(11)----9-------(9)---|
|-11------(11)-------|-(11)------------------|
|--9-------(9)-------|--(9)------------------|
|--------------------|--------10------(10)---|


   Q   Q  Q   Q       Q     Q   Q    Q
|--7------7-------|---7---------7----------|
|-----10-----10---|--------10-------10-----|
|-----------------|------------------------|
|-----------------|------------------------|
|-----------------|------------------------|
|-----------------|------------------------|
|
|  Q   Q  Q   E E    +E  E  E E Q    E  E
|--5---5--5---5-5-|--(5)-5--5-5-5----5--5--|
|--5---5--5---5-5-|--(5)-5--5-5-5----5--5--|
|--6---6--6---6-6-|--(6)-6--6-6-6----6--6--|
|--7---7--7---7-7-|--(7)-7--7-7-7----7--7--|
|--7---7--7---7-7-|--(7)-7--7-7-7----7--7--|
|--5---5--5---5-5-|--(5)-5--5-5-5----5--5--|
|
|~~~~~~~~~~~~~~~~~~~~~~~~~~~~~~~~~~~~~~~
|  W                 +H.             Q
|-----------------|------------------7-----|
|-10--------------|-(10)-----------(10)----|
|--9--------------|--(9)------------(9)----|
|-----------------|------------------------|
|-----------------|------------------------|
|-10--------------|-(10)-----------(10)----|


  Bm
   Q   Q    Q    Q       Q     Q   Q    Q
|-----------9--------|---7-------------------|
|-----10-------------|--------10---9---10----|
|-11------------11---|-----------------------|
|--------------------|-----------------------|
|--------------------|-----------------------|
|--------------------|-----------------------|
|
|  Q   Q    Q    E E    +E  E  E E Q    E  E
|--7---7----7----7-7-|--(7)-7--7-7-7----7--7-|
|--7---7----7----7-7-|--(7)-7--7-7-7----7--7-|
|--7---7----7----7-7-|--(7)-7--7-7-7----7--7-|
|--9---9----9----9-9-|--(9)-9--9-9-9----9--9-|
|--9---9----9----9-9-|--(9)-9--9-9-9----9--9-|
|--7---7----7----7-7-|--(7)-7--7-7-7----7--7-|
|
|  <                           <
|  ~~~~~~~~~~~~~~~~~~~~~~~~~~~~~~~~~~~~~~~~~~~
|  H       +H           +Q     H       +Q
|--------------------|-----------------------|
|--------------------|--------10------(10)---|
|-11------(11)-------|-(11)----9-------(9)---|
|-11------(11)-------|-(11)------------------|
|--9-------(9)-------|--(9)------------------|
|--------------------|--------10------(10)---|


   Q   Q  Q   Q       Q     Q   Q    Q
|--7------7-------|---7---------7----9-----||
|-----10-----10---|--------10--------------||
|-----------------|------------------------||
|-----------------|------------------------||
|-----------------|------------------------||
|-----------------|------------------------||
|
|  Q   Q  Q   E E    +E  E  E E Q    E  E
|--7---7--7---7-7-|--(7)-7--7-7-7----7--7--||
|--7---7--7---7-7-|--(7)-7--7-7-7----7--7--||
|--7---7--7---7-7-|--(7)-7--7-7-7----7--7--||
|--9---9--9---9-9-|--(9)-9--9-9-9----9--9--||
|--9---9--9---9-9-|--(9)-9--9-9-9----9--9--||
|--7---7--7---7-7-|--(7)-7--7-7-7----7--7--||
|
|~~~~~~~~~~~~~~~~~~~~~~~~~~~~~~~~~~~~~~~
|  W                 +H.             Q
|-----------------|------------------9-----||
|-10--------------|-(10)-----------(10)----||
|--9--------------|--(9)------------(9)----||
|-----------------|------------------------||
|-----------------|------------------------||
|-10--------------|-(10)-----------(10)----||


 Interlude
  G#F#F#m                    G#F#F#m
         ~~~~~~~~~~~
  Q   Q  H      +W           W              W
|-------------|------------|-------------|--------|
|--------9----|-(9)--------|-------------|--------|
|-----6-------|------------|-------------|--------|
|-9-----------|------------|-------------|--------|
|-------------|------------|-------------|--------|
|-------------|------------|-------------|--------|
|
| E E Q  H      +W           E E Q  H      +W
|--------2----|-(2)--------|--------2----|-(2)----|
|--------2----|-(2)--------|--------2----|-(2)----|
|-----2--2----|-(2)--------|-----2--2----|-(2)----|
|-6s4-4--4----|-(4)--------|-6s4-4--4----|-(4)----|
|-6s4-4--4----|-(4)--------|-6s4-4--4----|-(4)----|
|-4s2-2--2----|-(2)--------|-4s2-2--2----|-(2)----|


  G#F#F#m                    G#F#F#m
  Gtr I
  E E Q  H      +W           E E Q  H      +W
|--------2----|-(2)--------|--------2----|-(2)----|
|--------2----|-(2)--------|--------2----|-(2)----|
|-----2--2----|-(2)--------|-----2--2----|-(2)----|
|-6s4-4--4----|-(4)--------|-6s4-4--4----|-(4)----|
|-6s4-4--4----|-(4)--------|-6s4-4--4----|-(4)----|
|-4s2-2--2----|-(2)--------|-4s2-2--2----|-(2)----|


  G#F#F#m                              G#5F#F#m
  Gtr II
  Q    Q  Q   Q     Q    Q  Q   Q    a  Q    Q   Q   Q     Q    Q   Q   Q
|----------------|-----------------|--------------------|------------------|
|----------------|-----------------|--------------------|------------------|
|----------------|-----------------|--------------------|------------------|
|-9-------9------|--9-------9------|-9s11-------11------|-11-------11------|
|-----12-----12--|------12-----12--|--------12------12--|------12------12--|
|----------------|-----------------|--------------------|------------------|
|
| Gtr I
| E E  Q  H        +W                   E E  Q   H        +W
|---------2------|-(2)-------------|-------------2------|-(2)--------------|
|---------2------|-(2)-------------|-------------2------|-(2)--------------|
|------2--2------|-(2)-------------|---------2---2------|-(2)--------------|
|-6s4--4--4------|-(4)-------------|----6s4--4---4------|-(4)--------------|
|-6s4--4--4------|-(4)-------------|----6s4--4---4------|-(4)--------------|
|-4s2--2--2------|-(2)-------------|----4s2--2---2------|-(2)--------------|


  G#F#F#m                            G#5F#F#m
  Q    Q  Q   Q     Q    Q  Q   Q     Q   Q   Q  Q     Q   Q   Q  Q
|----------------|-----------------|----------------|-----------------||
|----------------|-----------------|----------------|-----------------||
|----------------|-----------------|----------------|-----------------||
|-9-------9------|--9-------9------|------7------7--|------7------7---||
|-----12-----12--|------12-----12--|-11------11-----|-11------11------||
|----------------|-----------------|----------------|-----------------||
|
| E E  Q  H        +W                 E E Q   H       +W
|---------2------|-(2)-------------|----------2-----|-(2)-------------||
|---------2------|-(2)-------------|----------2-----|-(2)-------------||
|------2--2------|-(2)-------------|------2---2-----|-(2)-------------||
|-6s4--4--4------|-(4)-------------|--6s4-4---4-----|-(4)-------------||
|-6s4--4--4------|-(4)-------------|--6s4-4---4-----|-(4)-------------||
|-4s2--2--2------|-(2)-------------|--4s2-2---2-----|-(2)-------------||


 Breakdown
  G#5   F#F#m                          G#5     F#F#m
  Gtr II
  Q   Q   Q  Q      Q    Q   Q   Q      Q    Q   Q  Q      Q    Q   Q   Q
|----------------|-------------------|------------------|--------------------|
|---------9------|-----------9-------|-----------9------|-----------9--------|
|-----6------6---|-------6-------6---|-------6------6---|-------6-------6----|
|-9--------------|--9----------------|--9---------------|--9-----------------|
|----------------|-------------------|------------------|--------------------|
|----------------|-------------------|------------------|--------------------|
|
| Gtr I
| E E E E Q  E E   +E  E Q.    E E E    E  E E E Q  E E   +E  E Q.    E E E
|---------2--2-2-|-(2)-2-2-----2-2-2-|-----------2--2-2-|-(2)-2-2-----2-2-2--|
|---------2--2-2-|-(2)-2-2-----2-2-2-|-----------2--2-2-|-(2)-2-2-----2-2-2--|
|---------2--2-2-|-(2)-2-2-----2-2-2-|-----------2--2-2-|-(2)-2-2-----2-2-2--|
|-6-6-6s4-4--4-4-|-(4)-4-4-----4-4-4-|--6--6-6s4-4--4-4-|-(4)-4-4-----4-4-4--|
|-6-6-6s4-4--4-4-|-(4)-4-4-----4-4-4-|--6--6-6s4-4--4-4-|-(4)-4-4-----4-4-4--|
|-4-4-4s2-2--2-2-|-(2)-2-2-----2-2-2-|--4--4-4s2-2--2-2-|-(2)-2-2-----2-2-2--|
|
| Gtr III
| W                +W                  +W                 +W
|----------------|-------------------|------------------|--------------------|
|----------------|-------------------|------------------|--------------------|
|----------------|-------------------|------------------|--------------------|
|----------------|-------------------|------------------|--------------------|
|----------------|-------------------|------------------|--------------------|
|-2--------------|-(2)---------------|-(2)--------------|-(2)----------------|


    G#5     F#F#m
  a  Q    Q    Q   Q      Q     Q    Q    Q
|----------------------|----------------------|
|-------------10-------|------------10--------|
|----------------------|----------------------|
|-9s11---11-------11---|-11----11--------11---|
|----------------------|----------------------|
|----------------------|----------------------|
|
|    E E  E E  Q   E E   +E  E  Q.     E  E E
|--------------2---2-2-|-(2)-2--2------2--2-2-|
|--------------2---2-2-|-(2)-2--2------2--2-2-|
|--------------2---2-2-|-(2)-2--2------2--2-2-|
|----6-6--6s4--4---4-4-|-(4)-4--4------4--4-4-|
|----6-6--6s4--4---4-4-|-(4)-4--4------4--4-4-|
|----4-4--4s2--2---2-2-|-(2)-2--2------2--2-2-|
|
|    W                   +W
|----------------------|----------------------|
|----------------------|----------------------|
|----------------------|----------------------|
|----------------------|----------------------|
|----------------------|----------------------|
|----5-----------------|-(5)------------------|


  G#5      F#F#m
   Q     Q    Q   Q      Q     Q    Q    Q
|---------------------|----------------------||
|------------10-------|------------10--------||
|---------------------|----------------------||
|-11----11-------11---|-11----11--------11---||
|---------------------|----------------------||
|---------------------|----------------------||
|
|  E  E  E E  Q   E E   +E  E  Q.     E  E E
|-------------2---2-2-|-(2)-2--2------2--2-2-||
|-------------2---2-2-|-(2)-2--2------2--2-2-||
|-------------2---2-2-|-(2)-2--2------2--2-2-||
|--6--6--6s4--4---4-4-|-(4)-4--4------4--4-4-||
|--6--6--6s4--4---4-4-|-(4)-4--4------4--4-4-||
|--4--4--4s2--2---2-2-|-(2)-2--2------2--2-2-||
|
| +W                    +W
|---------------------|----------------------||
|---------------------|----------------------||
|---------------------|----------------------||
|---------------------|----------------------||
|---------------------|----------------------||
|-(5)-----------------|-(5)------------------||


   Chorus
    A
     ~~   ~~    ~~~~ ~~      ~~~~           ~~~~
     Q    Q     Q    Q       Q     Q  Q     Q
||--------------9--------|---7-------------------|
||o------10--------------|--------10--9----10----|
||--11----------9---11---|---7-------------------|
||--------7--------------|------------------7----|
||o--9---------------9---|-----------------------|
||-----------------------|-----------------------|
|    Q    Q     Q    Q       H.             Q
|
|    E E  E E   Q    E E    +E  E  Q  E E   E  E
||---5-5--5-5---5----5-5-|--(5)-5--5--5-5---5--5-|
||o--5-5--5-5---5----5-5-|--(5)-5--5--5-5---5--5-|
||---6-6--6-6---6----6-6-|--(6)-6--6--6-6---6--6-|
||---7-7--7-7---7----7-7-|--(7)-7--7--7-7---7--7-|
||o--7-7--7-7---7----7-7-|--(7)-7--7--7-7---7--7-|
||---5-5--5-5---5----5-5-|--(5)-5--5--5-5---5--5-|
|
|    <                             <
|    ~~~~~~~~~~~~~~~~~~~~~~~~~~~~~~~~~~~~~~~~~~~~~
|    H         +H           +Q     H       +Q
||-----------------------|-----------------------|
||o----------------------|--------10------(10)---|
||--11--------(11)-------|-(11)----9-------(9)---|
||--11--------(11)-------|-(11)------------------|
||o--9---------(9)-------|--(9)------------------|
||-----------------------|--------10------(10)---|


  Bm
   ~~       ~           ~~~~  ~~ ~     ~~~~
   Q    Q   Q   Q       Q     Q  Q     Q
|--7----------------|---7--------------------||
|------10---9--10---|--------10--9----10----o||
|-------------------|------------------------||
|--9---11---9--11---|---9----11--9----11-----||
|-------------------|-----------------------o||
|-------------------|------------------------||
|  Q    Q   Q   Q       Q     Q  Q     Q
|
|  E E  E E Q   E E    +E  E  Q  E E   E  E
|--7-7--7-7-7---7-7-|--(7)-7--7--7-7---7--7--||
|--7-7--7-7-7---7-7-|--(7)-7--7--7-7---7--7-o||
|--7-7--7-7-7---7-7-|--(7)-7--7--7-7---7--7--||
|--9-9--9-9-9---9-9-|--(9)-9--9--9-9---9--9--||
|--9-9--9-9-9---9-9-|--(9)-9--9--9-9---9--9-o||
|--7-7--7-7-7---7-7-|--(7)-7--7--7-7---7--7--||
|
|~~~~~~~~~~~~~~~~~~~~~~~~~~~~~~~~~~~~~~~~~
|  W                   +H.             Q
|-------------------|------------------7-----||
|-10----------------|-(10)-----------(10)---o||
|--9----------------|--(9)------------(9)----||
|-------------------|------------------------||
|-------------------|-----------------------o||
|-10----------------|-(10)-----------(10)----||


   Outro
    F#m               F#5
     E  E  E  E  E  E  E  E     E   E  E  E  E  E  E  E
||--------------------------|---------------------------|
||o-------------------------|---------------------------|
||--11-11-11-11-11-11-11-11-|--11--11-11-11-11-11-11-11-|
||---x--x--x--x--x--x--x--x-|---x---x--x--x--x--x--x--x-|
||o--9--9--9--9--9--9--9--9-|---9---9--9--9--9--9--9--9-|
||--------------------------|---------------------------|
|
|    Q     Q     Q     E  E     E   E  E  E  E  E  E  E
||---2-----2-----2----------|---------------------------|
||o--2-----2-----2----------|---------------------------|
||---2-----2-----2----------|---------------------------|
||---4-----4-----4-----4--4-|---4---4--4--4--4--4--4--4-|
||o--4-----4-----4-----4--4-|---4---4--4--4--4--4--4--4-|
||---2-----2-----2-----2--2-|---2---2--2--2--2--2--2--2-|
|
|    W                         +W
||--14----------------------|-(14)----------------------|
||o-14----------------------|-(14)----------------------|
||---9----------------------|--(9)----------------------|
||--------------------------|---------------------------|
||o-------------------------|---------------------------|
||--------------------------|---------------------------|


  F#m                 F#5
    E   E  E  E  E  E  E  E     E   E  E  E  E  E  E  E  4x
|---------------------------|----------------------------||
|---------------------------|---------------------------o||
|--11--11-11-11-11-11-11-11-|--11--11-11-11-11-11-11-11--||
|---x---x--x--x--x--x--x--x-|---x---x--x--x--x--x--x--x--||
|---9---9--9--9--9--9--9--9-|---9---9--9--9--9--9--9--9-o||
|---------------------------|----------------------------||
|
|   Q      Q     Q     E  E     E   E  E  E  E  E  E  E  4x
|---2------2-----2----------|----------------------------||
|---2------2-----2----------|---------------------------o||
|---2------2-----2----------|----------------------------||
|---4------4-----4-----4--4-|---4---4--4--4--4--4--4--4--||
|---4------4-----4-----4--4-|---4---4--4--4--4--4--4--4-o||
|---2------2-----2-----2--2-|---2---2--2--2--2--2--2--2--||
|
|  +W                          +W                        4x
|-(14)----------------------|-(14)-----------------------||
|-(14)----------------------|-(14)----------------------o||
|--(9)----------------------|--(9)-----------------------||
|---------------------------|----------------------------||
|---------------------------|---------------------------o||
|---------------------------|----------------------------||


  F#m
   Q   Q   H          +W            +W            +W
|------------------|-------------|-------------|---------|
|-14--14-----------|-------------|-------------|---------|
|--x---x--11-------|-(11)--------|-(11)--------|-(11)----|
|-11--11---x-------|--(x)--------|--(x)--------|--(x)----|
|----------9-------|--(9)--------|--(9)--------|--(9)----|
|------------------|-------------|-------------|---------|
|
|  Q   Q   Q  +Q      +W            +W            +W
|--2---2---2--(2)--|--(2)--------|--(2)--------|--(2)----|
|--2---2---2--(2)--|--(2)--------|--(2)--------|--(2)----|
|--2---2---2--(2)--|--(2)--------|--(2)--------|--(2)----|
|--4---4---4--(4)--|--(4)--------|--(4)--------|--(4)----|
|--4---4---4--(4)--|--(4)--------|--(4)--------|--(4)----|
|--2---2---2--(2)--|--(2)--------|--(2)--------|--(2)----|
|
|  W                  +W            +W            +W
|-14---------------|-(14)--------|-(14)--------|-(14)----|
|-14---------------|-(14)--------|-(14)--------|-(14)----|
|--9---------------|--(9)--------|--(9)--------|--(9)----|
|------------------|-------------|-------------|---------|
|------------------|-------------|-------------|---------|
|------------------|-------------|-------------|---------|


  F#m
   +W            +W            +W            +W
|-------------|-------------|-------------|---------*|
|-------------|-------------|-------------|---------*|
|-(11)--------|-(11)--------|-(11)--------|-(11)----*|
|--(x)--------|--(x)--------|--(x)--------|--(x)----*|
|--(9)--------|--(9)--------|--(9)--------|--(9)----*|
|-------------|-------------|-------------|---------*|
|
|  +W            +W            +W            +W
|--(2)--------|--(2)--------|--(2)--------|--(2)----*|
|--(2)--------|--(2)--------|--(2)--------|--(2)----*|
|--(2)--------|--(2)--------|--(2)--------|--(2)----*|
|--(4)--------|--(4)--------|--(4)--------|--(4)----*|
|--(4)--------|--(4)--------|--(4)--------|--(4)----*|
|--(2)--------|--(2)--------|--(2)--------|--(2)----*|
|
|  +W            +W            +W            +W
|-(14)--------|-(14)--------|-(14)--------|-(14)----*|
|-(14)--------|-(14)--------|-(14)--------|-(14)----*|
|--(9)--------|--(9)--------|--(9)--------|--(9)----*|
|-------------|-------------|-------------|---------*|
|-------------|-------------|-------------|---------*|
|-------------|-------------|-------------|---------*|



Duration Legend
---------------
W - whole; H - half; Q - quarter; E - 8th; S - 16th; T - 32nd; X - 64th; a - acciaccatura
+ - note tied to previous; . - note dotted; .. - note double dotted
Uncapitalized letters represent notes that are staccato (1/2 duration)
Irregular groupings are notated above the duration line
Duration letters will always appear directly above the note/fret number it represents the
duration for.  Duration letters with no fret number below them represent rests.  Multi-
bar rests are notated in the form Wxn, where n is the number of bars to rest for.  Low
melody durations appear below the staff

Tablature Legend
----------------
 h   - hammer-on
 p   - pull-off
 b   - bend
 pb  - pre-bend
 r   - bend release (if no number after the r, then release immediately)
 /\  - slide into or out of (from/to "nowhere")
 s   - legato slide
 S   - shift slide
 - natural harmonic
[n]  - artificial harmonic
n(n) - tapped harmonic
 ~   - vibrato
 tr  - trill
 T   - tap
 TP  - trem. picking
 PM  - palm muting
\n/  - tremolo bar dip; n = amount to dip
 \n  - tremolo bar down
 n/  - tremolo bar up
/n\  - tremolo bar inverted dip
 =   - hold bend; also acts as connecting device for hammers/pulls
 <> - volume swell (louder/softer)
 x   - on rhythm slash represents muted slash
 o   - on rhythm slash represents single note slash

Misc Legend
-----------
 |  - bar
||  - double bar
||o - repeat start
o|| - repeat end
*|  - double bar (ending)
 :  - bar (freetime)
 $  - Segno
 &  - Coda
Tempo markers -  = BPM(8/16=s8/s16), where s8 = swing 8ths, s16 = swing 16ths



Добавлено: 20.04.2012
Другие материалы по этой песне:

Страница создана 20.04.2012
http://primanota.ru/denali/gunner-chords.htm
Привет, Гость.
Предлагаем пройти революционный курс по гитаре.
Подарок от PrimaNota.Ru, забирай!