PrimaNota.ru - самый крупный в мире бесплатный архив песенных текстов, аккордов, табулатур и нот


Demoniac - Hatred Is Purity - текст песни, таба, видео

Регистрация Запомнить меня
Войти через:  Facebook Google Twitter Vk Yandex Mail.ru

Demoniac - Hatred Is Purity - текст песни, таба, видео

Печатать
Просмотров: 130
Song:Hatred is purity
Artist:Demoniac
Album:Stormblade
Year:1997
Tab:Lead/Rhytam guitar


__________________________________


Legend:
(**-****)-Rhytmic pattern
~~~~-Vibrato
ˇ-downstroke
^-upstroke
˘˘˘˘-let ring
...-play many times
b-bend
H-hammer on
P-pull off
T-tapping
P.M. -Palm mute
X-rake
__________________________________

Standard Tuning

Intro Riff:
  a5       c5
   ˘˘˘˘˘˘˘
e----------|
H----------|
G-2------5-|
D-2------5-|
A-0------3-|
E----------|
   ^        ˇ
Riff 2:
(**-****) -(If you play a5 then it will be 77-7777 )
                                              55-5555

e------------------------------------|
H------------------------------------|
G------------------------------------|
D---9-------7-------9-11-7-9-9-------|
A-7-7-7-7-7-5-7-7-7-7-9--5-7-7-7-7---|
E-5---5-5-5---5-5-5------------5-5---|

Riff 2 (Little Melodic solo)

e-------------------------------------------------------9----9-10--5-7-9-10-9-7-5-4-5--|
H--------------------------------------10-9-10-12-10-12---12---------------------------|
G--6-4-2-4-2-1-2--6-7-9-7-9-11-9-7-9-9-------------------------------------------------|
D--------------------------------------------------------------------------------------|
A--------------------------------------------------------------------------------------|
E--------------------------------------------------------------------------------------|


Riff 3 1st Guitar

e------------------------------|
H------------------------------|
G------------------------------|
D----------------------------9-|
A-00000000-55555555-77777777-7-|
E------------------------------|

Riff 3 2nd Guitar (Lets Call it Riff 3b)

e------------------------------|
H------------------------------|
G----------------------------9-|
D-00000000-55555555-77777777-7-|
A------------------------------|
E------------------------------|

Riff 4 (not sure about this but sounds similar)
e------------------------------------------------|
H------------------------------------------------|
G------------------------------------------------|
D-0h2-2-2-5-2-5p2-0h2-2--0h2-2-2-5-2-0-2-5-2-5-7-|
A------------------------------------------------|
E------------------------------------------------|

Riff 3  ----------|
Riff 3b ----------|

Bridge
Play it many times.I am not sure about the Rhytmic Pattern.Check out the song! The

e-----------------------|
h-----------------------|
g-----------------------|
d-9...-7...------9...---|
a-7...-5...--7...-7...--|
E----------5...---------|


Riff2 +solo
Riff2

Basicly it goes so:
Intro Riff
Riff 2
Riff 2 solo theme
Riff 3
Riff 3 b
Riff 4
Bridge
Riff 2 + solo
Riff 2

__________________________________________________
__________________________________________________
Here it is!The lyrics!

Blood proud, blood pure, their blood
Spilled once more, sacred ground, might stand tall
Crush their spirit, till they fall

Aliens invade this place, white man stand up for your race
Be proud of your heritage, strong will, all through the ages
Angered but still with pride, show true feelings with nothing to hide

Hatred is purity, weakness is disease
Do you know what I mean?
Have you heard or seen?
So much anger but so much pride
I want to see them all dying

Hatred is purity, weakness is disease
Stand fall stand proud, speak thoughts out aloud
And start this war for you
Добавлено: 04.05.2012
Вам также может быть интересно:
Другие материалы по этой песне:
  • Аккорды и текст

Страница создана 04.05.2012
http://primanota.ru/demoniac/hatred-is-purity-chords.htm
Привет, Гость.
Предлагаем пройти революционный курс по гитаре.
Подарок от PrimaNota.Ru, забирай!