PrimaNota.ru - самый крупный в мире бесплатный архив песенных текстов, аккордов, табулатур и нот


Demob Happy - Young And Numb - таба, видео

Регистрация Запомнить меня
Войти через:  Facebook Google Twitter Vk Yandex Mail.ru

Demob Happy - Young And Numb - таба, видео

Печатать
Просмотров: 69
============== Young And Numb - Demob Happy ===================

Half-step down tuning (d#, A#, F#, C#, G#, D#)

Listen to the song for the rhythms and transitions between clean/crunch
and distortion. Pretty sure a chorus effect is used for the clean tone.

Starts with bass.

d#|----------------------------|----------------------------|
A#|----------------------------|----------------------------|
F#|----------------------------|----------------------------|
C#|----------------------------|----------------------------|
G#|----------------------------|--13-13-13-13-13-13-13-13---|
D#|--9--9--9--9--9--9--9--9----|----------------------------|


d#|----------------------------|----------------------------|
A#|----------------------------|----------------------------|
F#|----------------------------|----------------------------|
C#|----------------------------|----------------------------|
G#|--10-10-10-10-10-10-10-10---|----------------------------|
D#|----------------------------|--12-12-12-12-12-12-12-12---| x4

Now its guitar.

d#|----------------------------|----------------------------|
A#|-----------0----------------|-----------------0----------|
F#|--------0-------------------|-----------0----------------|
C#|----------------------------|--------8-------------------|
G#|-----11----------11---------|----------------------------|
D#|--9-------------------------|----------------------------|


d#|----------------------------|----------------------------|
A#|-----------8----------------|-----------------0----------|
F#|-----------------0----------|-----------0----------------|
C#|-----9----------------------|--------8-------------------|
G#|--10----10------------------|----------------------------|
D#|----------------------------|----------------------------|


d#|----------------------------|----------------------------|
A#|-----------0----------------|-----------------0----------|
F#|----------------------------|-----------0----------------|
C#|----------------------------|--------8-------------------|
G#|-----11----------11---------|----------------------------|
D#|--9-----9-------------------|----------------------------|


d#|----------------------------|----------------------------|
A#|-----------8----------------|----------------------------|
F#|----------------------------|----------------------------|
C#|-----9-----------9----------|----------------------------|
G#|--10----10----------10------|----------------------------|
D#|----------------------------|--0--0--0--0--0--0--0--0----|


d#|----------------------------|----------------------------|
A#|----------------------------|----------------------------|
F#|----------------------------|----------------------------|
C#|----------------------------|----------------------------|
G#|----------------------------|----------------------------|
D#|--9--9--9--9--9--9--9--9----|--6--6--6--6--6--6--6--6----|


d#|----------------------------|----------------------------|
A#|----------------------------|----------------------------|
F#|----------------------------|----------------------------|
C#|----------------------------|----------------------------|
G#|----------------------------|----------------------------|
D#|--3--3--3--3--3--3--3--3----|--0--0--0--0--0--0--0--0----|


d#|----------------------------|----------------------------|
A#|----------------------------|----------------------------|
F#|----------------------------|----------------------------|
C#|----------------------------|----------------------------|
G#|----------------------------|----------------------------|
D#|--9--9--9--9--9--9--9--9----|--6--6--6--6--6--6--6--6----|


d#|----------------------------|----------------------------|
A#|----------------------------|----------------------------|
F#|----------------------------|--1--1--1--1--1--1--1--1----|
C#|----------------------------|--2--2--2--2--2--2--2--2----|
G#|----------------------------|--2--2--2--2--2--2--2--2----|
D#|--3--3--3--3--3--3--3--3----|--0--0--0--0--0--0--0--0----|


d#|----------------------------|----------------------------|
A#|----------------------------|----------------------------|
F#|--10-10-10-10-10-10-10-10---|--7--7--7--7--7--7--7--7----|
C#|--11-11-11-11-11-11-11-11---|--8--8--8--8--8--8--8--8----|
G#|--11-11-11-11-11-11-11-11---|--8--8--8--8--8--8--8--8----|
D#|--9--9--9--9--9--9--9--9----|--6--6--6--6--6--6--6--6----|


d#|----------------------------|----------------------------|
A#|----------------------------|----------------------------|
F#|--4--4--4--4--4--4--4--4----|--1--1--1--1--1--1--1--1----|
C#|--5--5--5--5--5--5--5--5----|--2--2--2--2--2--2--2--2----|
G#|--5--5--5--5--5--5--5--5----|--2--2--2--2--2--2--2--2----|
D#|--3--3--3--3--3--3--3--3----|--0--0--0--0--0--0--0--0----|


d#|----------------------------|----------------------------|
A#|----------------------------|----------------------------|
F#|--10-10-10-10-10-10-10-10---|--7--7--7--7--7--7--7--7----|
C#|--11-11-11-11-11-11-11-11---|--8--8--8--8--8--8--8--8----|
G#|--11-11-11-11-11-11-11-11---|--8--8--8--8--8--8--8--8----|
D#|--9--9--9--9--9--9--9--9----|--6--6--6--6--6--6--6--6----|


d#|----------------------------|----------------|----------------|----------------|
A#|----------------------------|----------------|----------------|----------------|
F#|--4--4--4--4--4--4--4--4----|--9--9--9--9----|--9--9--9--9----|--13-13---------|
C#|--5--5--5--5--5--5--5--5----|----------------|----------------|--14-14---------|
G#|--5--5--5--5--5--5--5--5----|--7--7--7--7----|--7--7--7--7----|--14-14---------|
D#|--3--3--3--3--3--3--3--3----|----------------|----------------|--12-12---------|


d#|----------------|----------------|----------------------------------------|
A#|----------------|----------------|----------------------------------------|
F#|--10-10---------|--13-13----8----|--10-------10-------10----9-----8-------|
C#|--11-11---------|--14-14----9----|--11-------11-------11----10----9-------|
G#|--11-11---------|--14-14----9----|--11-------11-------11----10----9-------|
D#|--9--9----------|--12-12----7----|--9--------9--------9-----8-----7-------|


d#|----------------|----------------|----------------------------|----------------|
A#|----------------|----------------|----------------------------|----------------|
F#|--7--7----------|--4--4----------|--7-----7-------------------|--13-13-13-13---|
C#|--8--8----------|--5--5----------|--8-----8-----x--x--x--x/---|--14-14-14-14---|
G#|--8--8----------|--5--5----------|--8-----8-----x--x--x--x/---|--14-14-14-14---|
D#|--6--6----------|--3--3----------|--6-----6-----x--x--x--x/---|--12-0--12-12---|


d#|----------------|----------------|----------------------------------------|
A#|----------------|----------------|----------------------------------------|
F#|--10-10-10-10---|--13-13-13-8----|--10-------10-------10----9-----8-------|
C#|--11-11-11-11---|--14-14-14-9----|--11-------11-------11----10----9-------|
G#|--11-11-11-11---|--14-14-14-9----|--11-------11-------11----10----9-------|
D#|--9--9--9--9----|--12-0--12-7----|--9--------9--------9-----8-----7-------|


d#|----------------|----------------|----------------|------|
A#|----------------|----------------|----------------|------|
F#|--7--7--7--7----|--4--4--4--4----|--7--7--7--7----|--13--|
C#|--8--8--8--8----|--5--5--5--5----|--8--8--8--8----|--14--|
G#|--8--8--8--8----|--5--5--5--5----|--8--8--8--8----|--14--|
D#|--6--6--6--6----|--3--3--3--3----|--6--6--6--6----|--12--|


d#|----------------------------|----------------------------|
A#|-----------0----------------|-----------------0----------|
F#|--------0-------------------|-----------0----------------|
C#|----------------------------|--------8-------------------|
G#|-----11----------11---------|----------------------------|
D#|--9-------------------------|----------------------------|


d#|----------------------------|----------------------------|
A#|-----------8----------------|-----------------0----------|
F#|-----------------0----------|-----------0----------------|
C#|-----9----------------------|--------8-------------------|
G#|--10----10------------------|----------------------------|
D#|----------------------------|----------------------------|


d#|----------------------------|----------------------------|
A#|-----------0----------------|-----------------0----------|
F#|----------------------------|-----------0----------------|
C#|----------------------------|--------8-------------------|
G#|-----11----------11---------|----------------------------|
D#|--9-----9-------------------|----------------------------|


d#|----------------------------|----------------------------|
A#|-----------8----------------|-----------------0----------|
F#|--------------------0-------|-----------0--------0-------|
C#|-----9-----------9----------|--------8-------------------|
G#|--10----10------------------|----------------------------|
D#|----------------------------|----------------------------|


d#|----------------------------|----------------------------|
A#|-----------0----------------|-----------------0----------|
F#|--------0-------------------|-----------0----------------|
C#|----------------------------|--------8-------------------|
G#|-----11----------11---------|----------------------------|
D#|--9-------------------------|----------------------------|


d#|----------------------------|----------------------------|
A#|-----------8----------------|-----------------0----------|
F#|-----------------0----------|-----------0----------------|
C#|-----9----------------------|--------8-------------------|
G#|--10----10------------------|----------------------------|
D#|----------------------------|----------------------------|


d#|----------------------------|----------------------------|
A#|-----------0----------------|-----------------0----------|
F#|----------------------------|-----------0----------------|
C#|----------------------------|--------8-------------------|
G#|-----11----------11---------|----------------------------|
D#|--9-----9-------------------|----------------------------|


d#|----------------------------|----------------------------|
A#|-----------8----------------|----------------------------|
F#|----------------------------|----------------------------|
C#|-----9-----------9----------|----------------------------|
G#|--10----10----------10------|----------------------------|
D#|----------------------------|--0--0--0--0--0--0--0--0----|


d#|----------------------------|----------------------------|
A#|----------------------------|----------------------------|
F#|----------------------------|----------------------------|
C#|----------------------------|----------------------------|
G#|----------------------------|----------------------------|
D#|--9--9--9--9--9--9--9--9----|--6--6--6--6--6--6--6--6----|


d#|----------------------------|----------------------------|
A#|----------------------------|----------------------------|
F#|----------------------------|----------------------------|
C#|----------------------------|----------------------------|
G#|----------------------------|----------------------------|
D#|--3--3--3--3--3--3--3--3----|--0--0--0--0--0--0--0--0----|


d#|----------------------------|----------------------------|
A#|----------------------------|----------------------------|
F#|----------------------------|----------------------------|
C#|----------------------------|----------------------------|
G#|----------------------------|----------------------------|
D#|--9--9--9--9--9--9--9--9----|--6--6--6--6--6--6--6--6----|


d#|----------------------------|----------------------------|
A#|----------------------------|----------------------------|
F#|----------------------------|--1--1--1--1--1--1--1--1----|
C#|----------------------------|--2--2--2--2--2--2--2--2----|
G#|----------------------------|--2--2--2--2--2--2--2--2----|
D#|--3--3--3--3--3--3--3--3----|--0--0--0--0--0--0--0--0----|


d#|----------------------------|----------------------------|
A#|----------------------------|----------------------------|
F#|--10-10-10-10-10-10-10-10---|--7--7--7--7--7--7--7--7----|
C#|--11-11-11-11-11-11-11-11---|--8--8--8--8--8--8--8--8----|
G#|--11-11-11-11-11-11-11-11---|--8--8--8--8--8--8--8--8----|
D#|--9--9--9--9--9--9--9--9----|--6--6--6--6--6--6--6--6----|


d#|----------------------------|----------------------------|
A#|----------------------------|----------------------------|
F#|--4--4--4--4--4--4--4--4----|--1--1--1--1--1--1--1--1----|
C#|--5--5--5--5--5--5--5--5----|--2--2--2--2--2--2--2--2----|
G#|--5--5--5--5--5--5--5--5----|--2--2--2--2--2--2--2--2----|
D#|--3--3--3--3--3--3--3--3----|--0--0--0--0--0--0--0--0----|


d#|----------------------------|----------------------------|
A#|----------------------------|----------------------------|
F#|--10-10-10-10-10-10-10-10---|--7--7--7--7--7--7--7--7----|
C#|--11-11-11-11-11-11-11-11---|--8--8--8--8--8--8--8--8----|
G#|--11-11-11-11-11-11-11-11---|--8--8--8--8--8--8--8--8----|
D#|--9--9--9--9--9--9--9--9----|--6--6--6--6--6--6--6--6----|


d#|----------------------------|----------------------------|
A#|----------------------------|--------------11-11-11-11---|
F#|--4--4--4--4--4--4--4--4----|--9-----9--9--x--x--x--x----|
C#|--5--5--5--5--5--5--5--5----|--------------x--x--x--x----|
G#|--5--5--5--5--5--5--5--5----|--7-----7--7--x--x--7--7----|
D#|--3--3--3--3--3--3--3--3----|----------------------------|


d#|----------------------------|----------------|----------------|----------------|
A#|-----------------11-11------|----------------|----------------|----------------|
F#|--x--9--9--9--x--x--x--9----|--13-13---------|--10-10---------|--13-13----8----|
C#|--x-----------x--x--x-------|--14-14---------|--11-11---------|--14-14----9----|
G#|--x--7--7--7--x--x--7--7----|--14-14---------|--11-11---------|--14-14----9----|
D#|----------------------------|--12-12---------|--9--9----------|--12-12----7----|


d#|----------------------------------------|----------------|----------------|
A#|----------------------------------------|----------------|----------------|
F#|--10-------10-------10----9-----8-------|--7--7----------|--4--4----------|
C#|--11-------11-------11----10----9-------|--8--8----------|--5--5----------|
G#|--11-------11-------11----10----9-------|--8--8----------|--5--5----------|
D#|--9--------9--------9-----8-----7-------|--6--6----------|--3--3----------|


d#|----------------------------|----------------|----------------|----------------|
A#|----------------------------|----------------|----------------|----------------|
F#|--7-----7-------------------|--13-13-13-13---|--10-10-10-10---|--13-13-13-8----|
C#|--8-----8-----x--x--x--x/---|--14-14-14-14---|--11-11-11-11---|--14-14-14-9----|
G#|--8-----8-----x--x--x--x/---|--14-14-14-14---|--11-11-11-11---|--14-14-14-9----|
D#|--6-----6-----x--x--x--x/---|--12-0--12-12---|--9--9--9--9----|--12-0--12-7----|


d#|----------------------------------------||-(backing part)-------|
A#|----------------------------------------||--11------------------|
F#|--10-------10-------10----9-----8-------||-----13-11-9-----3----|
C#|--11-------11-------11----10----9-------||--------------5-------|
G#|--11-------11-------11----10----9-------||-(behind chorus riff)-|
D#|--9--------9--------9-----8-----7-------||-(played earlier)-----|


d#|----------------------|----------------------||----------------------------|
A#|----------------------|--7--9----------------||----------------------------|
F#|--4-----4-------------|--------11-9-----3----||--13----x--10-10----x--9----|
C#|-----5-----5----------|--------------5-------||--14----x--11-11----x--10---|
G#|--------------7--4----|----------------------||--14----x--11-11----x--10---|
D#|----------------------|----------------------||--0-----x--9--9-----x--8----|


d#|----------------------------|
A#|----------------------------|
F#|--9-----x--7--7-----x--13---|
C#|--10----x--8--8-----x--14---|
G#|--10----x--8--8-----x--14---|
D#|--8-----x--6--6-----x--0----|


d#|-(solo played over previous riff)-------------------|
A#|--------------------15------------------------------|
F#|-----------13-------------13------------------------|
C#|--14------------------------------------------------|
G#|----------------------------------------------------|
D#|----------------------------------------------------|


d#|----------------------------------------------------|
A#|----------------------------------------------------|
F#|--------------15----13----15-------16-------15------|
C#|----------------------------------------------------|
G#|----------------------------------------------------|
D#|----------------------------------------------------|


d#|----------------------------------------------------|
A#|--------------------15------------------------------|
F#|-----------13-------------13------------------------|
C#|--14------------------------------------------------|
G#|----------------------------------------------------|
D#|----------------------------------------------------|


d#|----------------------------------------------------|
A#|----------------------------------------------------|
F#|----------------------------------------------------|
C#|--------------------------16-------14-------12------|
G#|----------------------------------------------------|
D#|----------------------------------------------------|


d#|-----------------------------------16---------------|
A#|--------------------15----------------------15------|
F#|-----------13-------------13------------------------|
C#|--14------------------------------------------------|
G#|----------------------------------------------------|
D#|----------------------------------------------------|


d#|----------------------------------------------------|
A#|-----------12b---------------x--------x-----x-------|
F#|--13-------12b---------------x--------x-----x-------|
C#|----------------------------------------------------|
G#|----------------------------------------------------|
D#|----------------------------------------------------|


d#|----------------------------------------------------|-------|
A#|--------------------15------------------------------|-------|
F#|-----------13-------------13b14---------------------|-------|
C#|--14------------------------------------------------|-------|
G#|----------------------------------------------------|-------|
D#|----------------------------------------------------|-------|


d#|----------------------------|----------------------------|
A#|----------------------------|----------------------------|
F#|--13----x--10-10----x--9----|--9-----x--7--7-----x--13---|
C#|--14----x--11-11----x--10---|--10----x--8--8-----x--14---|
G#|--14----x--11-11----x--10---|--10----x--8--8-----x--14---|
D#|--0-----x--9--9-----x--8----|--8-----x--6--6-----x--0----|


d#|----------------------------|----------------------------|----------------|
A#|----------------------------|----------------------------|----------------|
F#|--13----x--10-10----x--9----|--9-----x--7--7-----x--13---|----------------|
C#|--14----x--11-11----x--10---|--10----x--8--8-----x--14---|----------------|
G#|--14----x--11-11----x--10---|--10----x--8--8-----x--14---|----------------|
D#|--0-----x--9--9-----x--8----|--8-----x--6--6-----x--0----|--12-0--9--0----|


d#|----------------|----------------|----------------|----------------|
A#|----------------|----------------|----------------|----------------|
F#|----------------|----------------|----------------|----------------|
C#|-----8----------|----------------|----------------|----------------|
G#|--------7-------|----------------|----------------|----------------|
D#|--8--------6----|--12-0--9--6\---|----------------|--12-0--9--0----|


d#|----------------|----------------|----------------|----------------|
A#|----------------|----------------|----------------|----------------|
F#|----------------|----------------|----------------|----------------|
C#|-----8----------|----------------|----------------|----------------|
G#|--------7-------|----------------|----------------|----------------|
D#|--8--------6----|--12-0--9--6\---|---3------------|--12-0--9--0----|


d#|----------------|----------------|----------------|----------------|
A#|----------------|----------------|----------------|----------------|
F#|----------------|----------------|----------------|----------------|
C#|-----8----------|----------------|----------------|----------------|
G#|--------7-------|----------------|----------------|----------------|
D#|--8--------6----|--12-0--9--6\---|----------------|--12-0--9--0----|


d#|----------------|----------------|----------------||
A#|----------------|----------------|----------------||
F#|----------------|----------------|----------------||
C#|-----8----------|----------------|----------------||
G#|--------7-------|----------------|----------------||
D#|--8--------6----|--12-0--9--6\---|----------------||
Добавлено: 07.06.2016
Другие материалы по этой песне:
  • Аккорды и текст

Страница создана 07.06.2016
http://primanota.ru/demob-happy/young-and-numb-chords.htm
Привет, Гость.
Предлагаем пройти революционный курс по гитаре.
Подарок от PrimaNota.Ru, забирай!