PrimaNota.ru - самый крупный в мире бесплатный архив песенных текстов, аккордов, табулатур и нот


Demilich - The Echo - таба, видео

Регистрация Запомнить меня
Войти через:  Facebook Google Twitter Vk Yandex Mail.ru

Demilich - The Echo - таба, видео

Печатать
Просмотров: 119
DEMILICH OFFICIAL WEBSITE
http://www.anentity.com/demilich/


Artist: Demilich
Album:  Nespithe
Song:   The Echo
Tabs:   Antti Boman
Date:   2005-08-09
Tuning: A D G C E A

. = Palm muting
~ = Vibrato


Guitar 1:
----------------------------------|
----------------------------------|
---8888------------8888-----------|
-----------55------------7755-----|
---------66--4444------------4444-|
-0-----55--------0-----55---------|
 .               .

    Aki:
        2 x Guitar 1
    Antti:
        1 x empty
        1 x Guitar 1

Guitar 2a:
---------------------------------------------9---|
---------------------------------------9---8---6-|
-----------------6-----------------6-----6-------|
-------8-----------------8-----------5-----------|
---------4-----------------4---------------------|
-000-3-----000-3---000-3-----000-3---------------|
 ...       ...     ...       ...

Guitar 2b:
-------------------------------------------------|
-------------------------------------------------|
-----------------6-----------------6-------------|
-------8-----------------8-----------------2-----|
---------4-----------------4-------------1---4---|
-000-3-----000-3---000-3-----000-3---0-----------|
 ...       ...     ...       ...

Guitar 2a Extra:
---------9---|
---9---8---6-|
-----6-------|
-5-----------|
-------------|
-------------|

Guitar 2b Extra:
--------------|
--------------|
--------------|
-------2------|
-----1---4----|
-0------------|

    Antti:
        4 x Guitar 2a
        1 x Guitar 2a Extra
    Aki:
        4 x Guitar 2b
        1 x Guitar 2b Extra

Guitar 3:
------------------------------------------------------------------|
------------------------------------------------------------------|
---------------------------------------------------3~~~~~---------|
-------2~~~~~------2~~~~~--------------2~~~~~---------------------|
---------------------------66--44--------------------------66--44-|
-0-----------0-----------33--11--0-----------0-----------33--11---|
                         ........                        ........

------------------------------------------------------------------|
-----------------------------------------------------5------------|
---------------------------------------------------3--------------|
-------2~~~~~------2~~~~~--------------2~~~~~---------------------|
---------------------------66--44--------------------------66--44-|
-0-----------0-----------33--11--0-----------0-----------33--11---|
                         ........                        ........

    Antti + Aki:
        1 x Guitar 3

    Antti:
        4 x Guitar 2a
    Aki:
        4 x Guitar 2b

    Antti + Aki:
        3 x Guitar 1

Guitar 4a:
----------------------------------|
----------------------------------|
-----8---9---6-----9---11---7---8-|
---7---6---5-----8---7----6---5---|
----------------------------------|
-0-------------0------------------|
 .             .

Guitar 4b:
----------------------------------|
----------------------------------|
----------------------------------|
----------------------------------|
---2-------------7----------5---6-|
-0-0-----------0-5--------4---3---|
 .             .

    Antti:
        1 x Guitar 4a (half speed)
        8 x Guitar 4a
    Aki:
        1 x Guitar 4b (half speed)
        8 x Guitar 4b

Guitar 5a:
------------------------------------8---|
----------------------------------------|
-----------8----------------8---5-6---6-|
-----7---4----------7---4-----7---------|
-------6--------------6---3-------------|
-0-3------------0-3---------------------|
 . .   . .      . .   .

Guitar 5b:
----------------------------------------|
----------------------------------------|
-----------8----------------8-----------|
-----7---4----------7---4-----7---------|
-------6--------------6---3-------------|
-0-3------------0-3-----------------5---|
 . .   . .      . .   .

    Aki:
        5 x Guitar 5a
    Antti:
        1 x Guitar 5a
        1 x Guitar 5b
        1 x Guitar 5a
        1 x Guitar 5b
        1 x Guitar 5a

Guitar 6a:
------------------|
------------------|
------------------|
-------4-2--3-----|
-4-------0--1---2-|
-2--------------0-|

Guitar 6b:
------------------|
----------------8-|
---------5--6~~~--|
-7~~~~~~~---------|
------------------|
------------------|


Guitar 6c:
------------------|
-------7----------|
---------2--3~~~--|
-5~~~~~---------2-|
------------------|
------------------|


Guitar 6d:
----------------|
----------------|
----------------|
-------4-2--3---|
-4-------0--1---|
-2--------------|

    Aki:
        11 x Guitar 6a
        1  x Guitar 6d
    Antti:
        2 x Guitar 6a
        2 x Guitar 6b
        4 x Guitar 6c
        2 x Guitar 6b
        1 x Guitar 6a
        1 x Guitar 6d

Guitar 7:
-----6------6-----|
------------------|
------------------|
---5---7--5---7-6-|
------6------6----|
-0------0------3--|

    Antti:
        9 x Guitar 7
    Aki:
        1 x empty
        8 x Guitar 7

Guitar 8:
-----------------------------------------|
-----------------------------------------|
---------7---------------6-----------8---|
-----------------------------------------|
---7---6---5---8-----5-4---8---8---7---6-|
-0---0-------3---0-6---------0---0-------|

    Antti + Aki:
        4 x Guitar 8
        4 x Guitar 7

Guitar 9 Pre:
---------|
---------|
-6---8---|
---------|
---------|
--5---4--|

Guitar 9:
------------------------------------------|
------------------------------------------|
------6--9------------6--9-----7--6---8---|
-----------8---7-----------8--------------|
-------3---------------3------------------|
-0--3--------6---0--3--------6-----5---4--|

Guitar 9 Extra:
---------|
---------|
-7---9---|
---------|
---------|
--6---5--|

    Antti + Aki:
        1 x Guitar 9 Pre
        2 x Guitar 9
        1 x Guitar 9 Extra
        1 x Guitar 9

Guitar 10:
-------------------------------------|
-------------------------------------|
-------6-------7-------6-------7---6-|
---------5---------------5-------5---|
---7---------4-----7---------4-------|
-0---3-----6-----0---3-----6---------|

Guitar 10b:
-------------------------------------|
-------------------------------------|
-----------------------6-------7---6-|
-------------------------5-------5---|
-------------------7---------4-------|
---------------------3-----6---------|

    Aki:
        4 x Guitar 10
    Antti:
        1 x Guitar 10b
        3 x Guitar 10

Guitar 11a:
--------------------------------------------------------------|
--------------------------------------------------------------|
-------------6-------------7--------------6-------------7---6-|
-----------------5----------------------------5-----------5---|
---7---------------------4------7---------------------4-------|
-0---------3-------6----------0---------3-------6-------------|
 .         .                  .         .

Guitar 11b:
--------------------------------------------------------------|
--------------------------------------------------------------|
-------------9-------------10-------------6-------------7---6-|
-----------------8----------------------------5-----------5---|
---10--------------------7------7---------------------4-------|
-0---------6-------9----------0---------3-------6-------------|
 .         .                  .         .

Guitar 11c:
--------------------------------------------------------------|
--------------------------------------------------------------|
-------------6-------------7--------------9-------------10--9-|
-----------------5----------------------------8-----------8---|
---7---------------------4------10--------------------7-------|
-0---------3-------6----------0---------6-------9-------------|
 .         .                  .         .

    Aki:
        4 x Guitar 11a
    Antti:
        1 x Guitar 11b
        1 x Guitar 11c
        1 x Guitar 11b
        1 x Guitar 11c

Guitar 12a:
----------------------------------|
----------------------------------|
----------------------------7---8-|
---2-------------5--------6---5---|
----------------------------------|
-0-------------0------------------|
 .             .

Guitar 12b:
----------------------------------|
----------------------------------|
-------------------9---11---7---8-|
---2-------------8---7----6---5---|
----------------------------------|
-0-------------0------------------|
 .             .

    Aki:
        8 x Guitar 4b
    Antti:
        4 x Solo
        3 x Guitar 12a
        1 x Guitar 12b

Guitar 13:
-----------------|
-----------------|
-----------------|
-----------------|
-2-2-------------|
-0-0-------------|
 .

    Antti + Aki:
        1 x Guitar 13
Добавлено: 15.06.2012
Другие материалы по этой песне:

Страница создана 15.06.2012
http://primanota.ru/demilich/the-echo-chords.htm
Привет, Гость.
Предлагаем пройти революционный курс по гитаре.
Подарок от PrimaNota.Ru, забирай!