PrimaNota.ru - самый крупный в мире бесплатный архив песенных текстов, аккордов, табулатур и нот


Demilich - Inherited Bowel Levitation - таба, видео

Регистрация Запомнить меня
Войти через:  Facebook Google Twitter Vk Yandex Mail.ru

Demilich - Inherited Bowel Levitation - таба, видео

Печатать
Просмотров: 111
OFFICIAL WEBSITE
http://www.anentity.com/demilich/


Key:
. = palm mute
\ or / = slide
<> = tremolo between two notes
~ = vibrato
Tuning = ADGCEA (Perfect 5th below normal)
Parentheses around notes indicates my uncertainty about their presence

Riff A - 0:00, 8X
----------------------|
----------------------|
----------------------|
-------------5-3------|
----------------------|
0-0-0-1--0-1----------|

Riff B - 0:12, 1X
-----------------------------------------------------------------------|
-----------------------------------------------------------------------|
---4-5-4---------------------------------4-5-4-------------------------|
---------5------------2-3-2-6------------------5------------2-3-2-6----|
2-----------5--3--2--(2-3-2-6)--5--3--2-----------5--3--2--(2-3-2-6)---|
0-----------3--1--0-------------3--1--0-----------3--1--0--------------|

---------------------------------7------------------------------------7---|
---------------5-----------8-6-5---------------------5----------8-6-5-----|
---------4-5-4---------------------------------4-5-4----------------------|
--------------------------------------------------------------------------|
5--3--2-----------5--3--2-------------5--3--2----------5--3--2------------|
3--1--0-----------3--1--0-------------3--1--0----------3--1--0------------|

Riff C - 0:34, 1X
----------------------------------------------------|
----------------------------------------------------|
----------------------------------------------------|
---------------------------------2<>3---------------|
5--3--2-----5--3--2-----5--3--2-------5--3--2-------|
3--1--0-----3--1--0-----3--1--0-------3--1--0-------|

Riff D - 0:44, main part (written as 4 repetitions) actually repeats ~12 times - just 
to the song
Intro Body
-----------|---------------------------------------------------------------------------|
-----------|---------------------------------------------------------------------------|
-----------|---------------------------------------------------------------------------|
-----------|---------------------------------------------------------------------------|
5--3--2--6-|--2-6-5-3-2--6--2-6-5-3-2--6--2-6-5-3-2--6--2-6-5-3-2--6-------------------|
3--1--0--4-|--0-4-3-1-0--4--0-4-3-1-0--4--0-4-3-1-0--4--0-4-3-1-0--4-------------------|
* * * * *

Riff E - 0:55, slight rhythmic variation of Riff D, 1X as written
--------------------------------------------------------------------------------------|
--------------------------------------------------------------------------------------|
--------------------------------------------------------------------------------------|
--------------------------------------------------------------------------------------|
2--6-2-6-5-3-2--6-2-6-5-3-2--6-2-6-5-3-2--6-2-6-5-3-2---------------------------------|
0--4-0-4-3-1-0--4-0-4-3-1-0--4-0-4-3-1-0--4-0-4-3-1-0---------------------------------|
* * * *
* = shorter in Riff E than in riff D - offsets rest of sequence by a half a beat


-> Then play Riff D again (body only) 8 times


Riff E - 1:15,
Gtr 1:
---------------------------------------------------------------------------------------|
---------------------------------------------------------------------------------------|
---------------------------------------------------------------------------------------|
---------------------------------------------------------------------------------------|
2--3-6----6-5-8-3-2----2--3-6---6-5-8-3-2----2--3-6--6-5-8-7-5----2--3-6--6-5-8--7--5--|
0--1-4----4-3-6-1-0----0--1-4---4-3-6-1-0----0--1-4--4-3-6-5-3----0--1-4--4-3-6--5--3--|


Gtr 2:
---------------------------------------------------------------------------------------|
---------------------------------------------------------------------6/9--9-8-11-10-8\-|
---------------------------------------------------------------------------------------|
------------------------------------------------3/6--6-5-8-7-5-------------------------|
---------------------------------------------------------------------------------------|
---------------------------------------------------------------------------------------|

Riff F - 1:36, repeat 4 times, play ending (after repeat sign) only on 4th time
----------------------------------------------------------9---||-----------|
----------------------------------------------------8---8----.||-----------|
--------------------------------------------------------------||-----------|
----5-6-5------5-6-5--------------5-6-5------5-6-5----5-------||--2--------|
---------------------(2-2-2-2)-------------------------------.||--0--------|
0-0--------0-0--------0-0-0-0---0--------0-0------------------||------0-0--|
. . . . . . . . . . . . .
Добавлено: 04.03.2012
Вам также может быть интересно:
Другие материалы по этой песне:
  • Аккорды и текст

Страница создана 04.03.2012
http://primanota.ru/demilich/inherited-bowel-levitation-chords.htm
Привет, Гость.
Предлагаем пройти революционный курс по гитаре.
Подарок от PrimaNota.Ru, забирай!