PrimaNota.ru - самый крупный в мире бесплатный архив песенных текстов, аккордов, табулатур и нот


Demi Lovato - Stop This World - аккорды и текст, видео

Регистрация Запомнить меня
Войти через:  Facebook Google Twitter Vk Yandex Mail.ru

Demi Lovato - Stop This World - аккорды и текст, видео

Печатать
Просмотров: 233
Stop This World
Demi Lovato
Demi Lovato
Stop The World
Here We Go Again
2009 Hollywood Records
Submitted by: paramore_fans@yahoo.com

Key: F#

Tuning: Standard EADGBe

Chords used:
C# -   x46664
Ebm -  x68876
F# -   244322
B -    x24442


Intro: C#--Ebm-F#-B- x2

Guitar 2:
e|-4-6-4-6-4-6-4-6-4-6-4--4----|
B|---------------------------7-|
G|-----------------------------|
D|-----------------------------| x4
A|-----------------------------|
E|-----------------------------|

Piano: 2nd turn B chord
e|-16-18-14-16-13-14-11-13-9-11-7-9-6-7-4-6-----------|
B|----------------------------------------------------|
G|----------------------------------------------------|
D|----------------------------------------------------|
A|----------------------------------------------------|
E|----------------------------------------------------|


Verse 1:
C#
I don't know why
  Ebm
I dont know why
   B
Im so afraid
(so afraid)
    C#
And i dont know how
Ebm
I dont know how
   B
to fix the pain
(fix the pain)
      C#
We're living a lie
Ebm
living a lie
        B
we just need to
change (need to change)
    C#
Cuz we're out of time
Ebm
we're out of time
         B
and its still the same


Chorus 1:
                  C#
You cant stop the world
           Ebm
but theres so much
F#        B
more that we could do
                   C#
You cant stop this girl
     Ebm     F#
From falling more
   B
in love with you
           C#
You said nobody
has to know
Ebm            F#
If its time to go
    B
and take it slow
But i can stop
    C#
the world stop
        Ebm
If they finally
F#     B
let us be alone


Post Chorus:
           C#  Ebm F# B
let us be alone


Guitar 2: At Post Chorus
e|-4-6-4-6-4-6-4-6-4-6-4--4----|
B|---------------------------7-|
G|-----------------------------|
D|-----------------------------| x2
A|-----------------------------|
E|-----------------------------|

Piano: 2nd turn B chord
e|-16-18-14-16-13-14-11-13-9-11-7-9-6-7-4-6-----------|
B|----------------------------------------------------|
G|----------------------------------------------------|
D|----------------------------------------------------|
A|----------------------------------------------------|
E|----------------------------------------------------|


Verse 2:
    C#
I'm Hearing the noise
Ebm
hearing the noise
     B
from all around
(from all around)
    C#
And im on the edge
Ebm
Im on the edge
   B
of breaking down
(of breakin down)
     C#
Like Bonnie and
      Ebm
Clide let's kinda ride
    B
and take this town
   C#
to keep it alive
Ebm
keep it alive
     B
dont make a sound


Chorus 2:
                 C#
We cant stop the world
           Ebm
but theres so much
F#        B
more that we could do
                   C#
You cant stop this girl
     Ebm     F#
From falling more
   B
in love with you
           C#
You said nobody
has to know
Ebm            F#
If its time to go
    B
and take it slow
But i can stop
    C#
the world stop
        Ebm
If they finally
F#     B
let us be alone
let us be i


Bridge:
C#
never wanna take
F#           B
  That final blow
     C#
I'll turn the other page
Ebm                B
  I wont close the book


(Repeat Chorus 1)


Outro:
           C#  Ebm F# B
let us be alone
           C#  Ebm F# B
let us be alone
           C#  Ebm F# B
let us be alone
Добавлено: 19.04.2012
Другие материалы по этой песне:
  • Аккорды и текст

Страница создана 19.04.2012
http://primanota.ru/demi-lovato/stop-this-world-chords.htm
Привет, Гость.
Предлагаем пройти революционный курс по гитаре.
Подарок от PrimaNota.Ru, забирай!