PrimaNota.ru - самый крупный в мире бесплатный архив песенных текстов, аккордов, табулатур и нот


Dementia Cookie Box - Covergirl Love - аккорды и текст, таба

Регистрация Запомнить меня
Войти через:  Facebook Google Twitter Vk Yandex Mail.ru

Dementia Cookie Box - Covergirl Love - аккорды и текст, таба

Печатать
Просмотров: 100
Covergirl Love
Dementia Cookie Box



#This file is the author's own work and represents their interpretation of the #
#song. You may only use this file for private study, scholarship, or research. #
#------------------------------------------------------------------------------#

Artist:	Dementia Cookie Box
Song:	Covergirl Love

Music amp; Words by Steven Baker

Lyrics:

Verse:
When the calendars come out ...

Chorus:
I am a prisoner to ...

Verse:
I don't know about ....


Chorus:
I've fallen prisoner to, Oh, ....

Guitar Chording:  C, G, Am, E, F, C, G

Lead Guitar:

Verse:
E---------------------------------------------------------------------------
A---------------------------------------------------------------------------
D---------------------------------------------------------------------------
G-------------0---------------------------------0---------------------------
B-------3-1-1---1---------------------------1-1---1-------------------3-1-1-
E-5-3-0-----------0-3-3-3-5-5-5-0-0-0-1-1-1---------0-3-3-3-3-3-5-3-0-------

Chorus:
E-----------------------------------------
A-----------------------------------------
D-----------------------------------------
G-----------------------------------------
B-1---------1-------------3-1-------1-----
E---3-5-0-1---3-3-3-5-3-0-----3-5-1---3-8-

© 1996 Dementia Cookie Box


Добавлено: 03.12.2013
Другие материалы по этой песне:
  • Аккорды и текст

Страница создана 18.03.2012
http://primanota.ru/dementia-cookie-box/covergirl-love-chords.htm
Привет, Гость.
Предлагаем пройти революционный курс по гитаре.
Подарок от PrimaNota.Ru, забирай!